BEN HARPER - POWER OF THE GOSPEL

Tune whole guitar down one semitone!!

|-------------------------------|---------------------|
|----0-1-0----------------------|--1-0----------------|
|--2---0---2-0-----------0------|--0---2-0------------|
|------2-------4-2-1-2-4---4-2--|--2-------4-2--1--2--|
|------3-----------2------------|--3------------2--0--|
|------------0-----------0------|--------0------------|

|-----------------------------|--------------------------|
|--0-1-0----------------------|--1-0---------------------|
|----0---2-0-----------0------|--0---2-0-------0---------|
|----2-------4-2-1-2-4---4-2--|--2-------4-2-------1-----|
|----3-----------2------------|--3-----------3-----------|
|----------0-----------0------|--------0---------2----0--|

|-------------------------------|---------------------|
|----0-1-0----------------------|--1-0----------------|
|--2---0---2-0-----------0------|--0---2-0------------|
|------2-------4-2-1-2-4---4-2--|--2-------4-2--1--2--|
|------3-----------2------------|--3------------2--0--|
|------------0-----------0------|--------0------------|

|-----------------------------|--------------------------------|
|--0-1-0----------------------|--1-0---------------------------|
|----0---2-0-----------0------|--0---2-0-------0---------------|
|----2-------4-2-1-2-4---4-2--|--2-------4-2-------1----2h4p2--|
|----3-----------2------------|--3-----------3-----------------|
|----------0-----------0------|--------0---------2----0--------|

|-----------------------------|
|------------1-1---0-0--------| ____
|------------------------2-2--|   x3 |
|----2-2p0-------------0------|  ____|
|----------3------------------| /
|--0-------------3------------|/

|-------------------|
|-------------------|
|------0-----2p0h2--|
|----2-----1--------|
|--3-----2----------|
|-------------------|

|-----------------------------------------|
|--------0-1-0-------0-1-0-------0--------| ____
|--2-0-2-------2-0-2-------2-0-2---2-0-2--|   x4 |
|-----------------------------------------|  ____|
|-----------------------------------------| /
|-----------------------------------------|/

|-------------------------------|---------------------|
|----0-1-0----------------------|--1-0----------------|
|--2---0---2-0-----------0------|--0---2-0------------|
|------2-------4-2-1-2-4---4-2--|--2-------4-2--1--2--|
|------3-----------2------------|--3------------2--0--|
|------------0-----------0------|--------0------------|

|-----------------------------|--------------------------------|
|--0-1-0----------------------|--1-0---------------------------|
|----0---2-0-----------0------|--0---2-0-------0---------------|
|----2-------4-2-1-2-4---4-2--|--2-------4-2-------1----2h4p2--|
|----3-----------2------------|--3-----------3-----------------|
|----------0-----------0------|--------0---------2----0--------|

Verse 1:
        Em              C
It will make a weak man mighty
        C              Em
It will make a mighty man fall
        Em                  C
It will fill your heart and hands
   C                         Em
Or leave you with nothing at all
         C            Em
It's the eyes for the blind
    Em           C
The legs for the lame
          C        Em
It is the love for hate
    C         Em
And pride for shame

Chorus:
    Em                      C
Now that's the power of the gospel
C                       Bm
That's the power of the gospel
Em                       C
That's the power of, the mighty mighty power
Bm                      Em
That's the power of the gospel yeah
Bm                Em
That's the power of

Verse 2:
Gospel on the water
Gospel on the land
The gospel in every woman and
The gospel in every man
Gospel in the garden
Gospel in the trees
The gospel that's inside of you
Gospel inside of me

Chorus

Verse 3:
In the hour of richness
In the hour of need
All of love's creations
Comes from the gospel seed
And you may leave tomorrow
And you may leave today
But you got to have, got to have the gospel
When you start out on your way

Chorus

That's the power of the gospel
That's the power of the gospel

----------------------------------------------------------------------------

tabbed by Orange_Squirrel
any questions?
email = [email protected]
GO CHEESE


Текст, аккорды и табулатура для песни "Power Of The Gospel", исполняет "Harper Ben".
Используемые в песне аккорды можно найти в разделе Как брать аккорды. Аккорды для шестиструнной гитары. Другие песни можно найти на нашем сайте, воспользовавшись алфавитным указателем вверху страницы.


 
Ошибка в тексте? Выделите ошибку и нажмите Ctrl+Enter