#----------------------------------PLEASE NOTE---------------------------------#
#This file is the author's own work and represents their interpretation of the #
#song. You may only use this file for private study, scholarship, or research. #
#------------------------------------------------------------------------------#

Ben Harper: Pleasure and Pain
-----------------------------

I transcribed this song so that people can now play it in standard tuning.
It is directly translated from YodaTabs who did a great job initally
Also, it's not quite standard tuning - it's dropped d. Have fun.


      [Intro]
   1   2   3   4   | |1   2   3   4   |1   2   3   4   |1   2   3   4   |
e------------------| |----------------|----------------|----------------|
b--------------3-5s| |7---3-------5p3-|----------------|----------------|
g------------2-----| |--------4-------|9-------7-------|2-------7-------|
d------------------| |----------------|----7p0-----5p0-|----0-------5p0-|
a------------------| |----------------|----------------|----------------|
d----------0-------| |--------2-------|7-------5-------|0-------5-------|

   1   2   3   4   |1   2   3   4   |1   2   3   4   |1   2   3   4   |
e------------------|----------------|----------------|----------------|
b--3-----------3-5s|7---3-------5p3-|----------------|----------------|
g------------2-----|--------4-------|9-------7-------|2-------7-------|
d------4---0-------|----------------|----7p0-----5p0-|----0-------5p0-|
a------------------|----------------|----------------|----------------|
d------------------|--------2-------|7-------5-------|0-------5-------|

   1   2   3   4   |1   2   3   4   |1   2   3   4   |1   2   3   4   |
e----------020-----|--------020-----|0-------0h2-2p0-|------------0h2-|
b--------------3---|------------3---|----------------|----------------|
g--2---------------|7---------------|----2-----------|7-------7s2-----|
d------0-----------|----5p0---------|----------------|----5-----------|
a------------------|----------------|0---------------|----------------|
d------------------|5---------------|----------------|5---------------|

   1   2   3   4   |1   2   3   4   |1   2   3   4   |1   2   3   4   |
e--2-------020-----|--------020-----|0-----------0h2-|2---0-----------|
b--------------3---|------------3---|--------3-------|------3-5p3-2s3-|
g------------------|7---------------|----2-----------|----------------|
d------------------|----5p0---------|----------------|----------------|
a------------------|----------------|0---------------|--------0-------|
d--0---------------|5---------------|----------------|0---------------|


      [1st Ending]             [2nd Ending]
   1   2   3   4   |       |1   2   3   4   ||
e------------------|       |----0h2-2-------||
b--3-----------3-5s|       |3---------------||
g------------2-----|       |--2-------------||
d------------------|       |----------------||
a------------------|       |----------------||
d--0-------0-------|       |0---------------||


Текст, аккорды и табулатура для песни "Pleasure And Pain", исполняет "Harper Ben".
Используемые в песне аккорды можно найти в разделе Как брать аккорды. Аккорды для шестиструнной гитары. Другие песни можно найти на нашем сайте, воспользовавшись алфавитным указателем вверху страницы.


 
Ошибка в тексте? Выделите ошибку и нажмите Ctrl+Enter