Person: Nic Young 

song: Please Bleed

artist: Ben Harper

tab: Tab for Please Bleed, by Ben Harper.

Tabbed by Nic Young 
http://snakepit.cjb.net

Tune down one whole step (-D-G-C-F-A-D-).

Verse:
|-----------------------------|
|-----------------------------|
|-----------------------------|
|---2-0---0-----------2-2h4p2-|
|-----------4-0-4-3-----------|
|-0-----3-----------3---------|
              *
On the verse before the chorus, stop playing at the *.

Chorus:
|---0-|-0-0-|---0-|-0-0-|---0-|-0-0-|-2-3-2-|-0-0---|-0-0-|
|---0-|-1-1-|---0-|-1-1-|---0-|-1-1-|-3-3-3-|-1-1---|-1-1-|
|---0-|-0-0-|---0-|-0-0-|---0-|-0-0-|-2-2-2-|-2-2---|-0-0-|
|-2---|-2-2-|-2---|-2-2-|-2---|-2-2-|-0-0-0-|-2-2-0-|-2-2-|
|-2---|-3-3-|-2---|-3-3-|-2---|-3-3-|-------|-0-0-2-|-3-3-|
|-0---|-----|-0---|-----|-0---|-----|-------|-------|-----|

-0-0---|-0--0-|-0--0-|-0-0-|-2-3-2-|
-1-1---|-1--1-|-1--1-|-1-1-|-3-3-3-|
-2-2---|-0--2-|-0--2-|-0-0-|-2-2-2-|
-2-2-0-|-2--2-|-2--2-|-2-2-|-0-0-0-|
-0-0-2-|-3--0-|-3--0-|-3-3-|-------|
-------|------|------|-----|-------|
                      *
On the last chorus, stop at the *.

SUBMIT: Send


Текст, аккорды и табулатура для песни "Please Bleed", исполняет "Harper Ben".
Используемые в песне аккорды можно найти в разделе Как брать аккорды. Аккорды для шестиструнной гитары. Другие песни можно найти на нашем сайте, воспользовавшись алфавитным указателем вверху страницы.


 
Ошибка в тексте? Выделите ошибку и нажмите Ctrl+Enter