Less - Ben Harper & The Innocent Criminals

Tabbed by Paul Cosgrove ([email protected])

=========================================
INTRO:
G|---------------|
D|-5-5/75--5--5-|
A|-5-5/75--5--5-|
E|-3-3/53--3--3-|

G|-0-0---3---------|-0-0-------------|
D|-----3-----2-3-4-|-----2-3---2-3-4-|
   1 + 2 + 3 + 4 +   1 + 2 + 3 + 4 +

G|-0-0---3---------|-0-0-------------|
D|-----3-----2-3-4-|-----2-3---2-3-4-|
   1 + 2 + 3 + 4 +   1 + 2 + 3 + 4 +
=========================================

VERSE 1
G|-0-0---3---------|-0-0-------------|
D|-----3-----2-3-4-|-----2-3---2-3-4-|x7
   1 + 2 + 3 + 4 +   1 + 2 + 3 + 4 +

G|-0-0---3---------|-0-0-0-0-0-0-0---|
D|-----3-----2-3-4-|---------------2-|
   1 + 2 + 3 + 4 +   1 + 2 + 3 + 4 +
=========================================

CHORUS 1
G|-9-9-8-7---------|-4---4-5---------|
D|---------------2-|---2-----------2-| x4
   1 + 2 + 3 + 4 +   1 + 2 + 3 + 4 +

G|-9-9-8-7---------|-4---4-5---------|
D|---------------2-|---2-------------|
   1 + 2 + 3 + 4 +   1 + 2 + 3 + 4 +

D|-2---------5-----|-----------------|
G|---------------3-|---2-3-2-3-2-3-2-|
   1 + 2 + 3 + 4 +   1 + 2 + 3 + 4 +

D|-2---------5-----|-----------------|
G|---------------3-|---2-3-2-3-2-3-4-|
   1 + 2 + 3 + 4 +   1 + 2 + 3 + 4 +
=========================================

VERSE 2
G|-0-0---3---------|-0-0-------------|
D|-----3-----2-3-4-|-----2-3---2-3-4-|x7
   1 + 2 + 3 + 4 +   1 + 2 + 3 + 4 +

G|-0-0---3---------|-0-0-0-0-0-0-0---|
D|-----3-----2-3-4-|---------------2-|
   1 + 2 + 3 + 4 +   1 + 2 + 3 + 4 +
=========================================

CHORUS 2
G|-9-9-8-7---------|-4---4-5---------|
D|---------------2-|---2-----------2-| x4
   1 + 2 + 3 + 4 +   1 + 2 + 3 + 4 +

G|-9-9-8-7---------|-4---4-5---------|
D|---------------2-|---2-------------|
   1 + 2 + 3 + 4 +   1 + 2 + 3 + 4 +

D|-2---------5-----|-----------------|
G|---------------3-|---2-3-2-3-2-3-2-|
   1 + 2 + 3 + 4 +   1 + 2 + 3 + 4 +

D|-2---------5-----|-----------------|
G|---------------3-|---2-3-2-3-2-3-2-|
   1 + 2 + 3 + 4 +   1 + 2 + 3 + 4 +

D|-2---------5-----|-----------------|
G|---------------3-|---2-2-2-2-2-2-2-|
   1 + 2 + 3 + 4 +   1 + 2 + 3 + 4 +
=========================================

BRIDGE
D|-----------------|-4---4-5-4-2-----|
G|-2---2-4-5-4-2---|---2-------------|
   1 + 2 + 3 + 4 +   1 + 2 + 3 + 4 +

D|-----------------|-4---4-5-4-2-----|
G|-2---2-4-5-4-2---|---2-------------|x12 (with vocals)
   1 + 2 + 3 + 4 +   1 + 2 + 3 + 4 +
=========================================

D|-----------------|-4---4-5-4-2-----|
G|-2---2-4-5-4-2---|---2-------------|Repeat to Fade (no vocals)
   1 + 2 + 3 + 4 +   1 + 2 + 3 + 4 +


Текст, аккорды и табулатура для песни "Less", исполняет "Harper Ben".
Используемые в песне аккорды можно найти в разделе Как брать аккорды. Аккорды для шестиструнной гитары. Другие песни можно найти на нашем сайте, воспользовавшись алфавитным указателем вверху страницы.


 
Ошибка в тексте? Выделите ошибку и нажмите Ctrl+Enter