Band: Ben Harper and the Innocent Criminals 
   Song: Burn to Shine 
   Album: Burn to Shine 
   Send any corrections or comments to [email protected] 

   Standard tuning 

   Intro: 
   e----------------------------------------------------------- 
   B----------------------------------------------------------- 
   G----------------------------------------------------------- 
   D------------------------------------------4b-4------------- 
   A-2-2-2-2-2-2-2-2-2-2-2-2-2-2--7-7-4-7-4-7------4-7-2h47-7- 
   E-3-3-3-3-3-3-3-3-3-3-3-3-3-3------------------------------- 

   e----------------------------------------------------------- 
   B----------------------------------------------------------- 
   G----------------------------------------------------------- 
   D-5---5-7-7b-5----------------------4-------------5---5---5- 
   A---7----------7--4-7-7-4-7-4-24-7---7-4-7-47-7---7---7--- 
   E----------------------------------------------------------- 

   e----------- 
   B----------- 
   G----------- 
   D-7-7b-5---- 
   A--------7-- 
   E----------- 

   Verse: 
   e------------------------------------------------------ 
   B------------------------------------------------------ 
   G------------------------------------------------------ 
   D---------------------------------------7-7-9-9-7-7-9-- 
   A-2-2-4-4-2-2-4-4-2-2-4-2-5-5-7-7-5-5-7-5-5-5-5-5-5-5-- 
   E-0-0-0-0-0-0-0-0-0-0-0-0-3-3-3-3-3-3-3---------------- 

   Chorus: 
   e--------------------------------------------------- 
   B--------------------------------------------------- 
   G-------------------------7-7-7-7-7-7-7-7-7-7------- 
   D-7-7-7-7-7-7-5-5-5-5-5-5-7-7-7-7-7-7-7-7-7-7-45-7- 
   A-7-7-7-7-7-7-5-5-5-5-5-5-5-5-5-5-5-5-5-5-5-5-45-7- 
   E-5-5-5-5-5-5-3-3-3-3-3-3---------------------23-5- 

   e----------------------------------------------------------- 
   B----------------------------------------------------------- 
   G-------------------------7-7-7-7-7-7-7-7-7-7-5/4-2-2-2-2-2- 
   D-7-7-7-7-7-7-5-5-5-5-5-5-7-7-7-7-7-7-7-7-7-7-5/4-2-2-2-2-2- 
   A-7-7-7-7-7-7-5-5-5-5-5-5-5-5-5-5-5-5-5-5-5-5-3/2-0-0-0-0-0- 
   E-5-5-5-5-5-5-3-3-3-3-3-3----------------------------------- 

   e----------------------------------------------------- 
   B----------------------------------------------------- 
   G-5/4-2-2-2-2-2--5/4-2---5/4-2---5/4-2---------------- 
   D-5/4-2-2-2-2-2--5/4-2---5/4-2---5/4-2---------------- 
   A-3/2-0-0-0-0-0--3/2-0---3/2-0---3/2-0---2-2-2-2-2-2-- 
   E----------------------------------------3-3-3-3-3-3-- 

   Solo: 
   e---------------------------------------------------- 
   B-------------------------------------------------8b- 
   G-9-9p7-----9-9-9-9-11-12-12b-11-9-7-9b-7-9-7-9---- 
   D--------9-6----------------------------------------- 
   A---------------------------------------------------- 
   E---------------------------------------------------- 

   e------------------------------------------------------- 
   B-----8b-----8-10-8-----10b-10b------------------------- 
   G-7-9----7-9--------9-0---------9-7-67/67/6----------- 
   D---------------------------------------------7--------- 
   A---------------------------------------------------9/7- 
   E-----------------------------------------------3/7----- 

   e-------------------------------- 
   B-------------------------------- 
   G-------------------------------- 
   D-7-5-5p4h5--5-5p4-5p4-/212-12b- 
   A-------------------------------- 
   E-------------------------------- 

   That's everything. I don't know the lyrics. 


Текст, аккорды и табулатура для песни "Burn To Shine", исполняет "Harper Ben".
Используемые в песне аккорды можно найти в разделе Как брать аккорды. Аккорды для шестиструнной гитары. Другие песни можно найти на нашем сайте, воспользовавшись алфавитным указателем вверху страницы.


 
Ошибка в тексте? Выделите ошибку и нажмите Ctrl+Enter