#----------------------------------PLEASE NOTE--------------------------------#
#This file is the author's own work and represents their interpretation of the#
#song. You may only use this file for private study, scholarship, or research.#
#-----------------------------------------------------------------------------#
#-- File created with Instab - http://www.pconline.com/~smcarey/instab.html --#
#-----------------------------------------------------------------------------#

Author/Artist: Ben Harper
Title: Burn One Down
Transcribed by: Jacob Wynn
Email: [email protected]

This is the first thing I've ever tabbed.  Someone sent me a tab for this but it
 wasn't quite right.  I could really use some help here, especially on the highe
r strings.  I'm just not sure what Ben's doing there.  Any suggestions on how to
 play the rhythm are greatly appreciated.  Also, Ben has this tuned down one who
le step.

------------------------------------------------------------------------------
------------------------------------------------------------------------------
------------------------------------------------------------------------------
---------------0--------------------------------------------------------------
---0-2---3-2-0----------------------------------------------------------------
-3-----3----------------------------------------------------------------------
 This is the riff in the beginning                                            

---3---33--3-------0-----------------3---33-----------------------------------
---3---33--3-------0-----------------3---33-----------------------------------
------------------------------------------------------------------------------
-----------------2------------------------------------------------------------
-----------------2---2-2-3---3-2-0--------------------------------------------
-3---3----3--3-2-0-----------------3---3--------------------------------------
 This is one place Im really having trouble, especially on the bottom strings.  

------------------------------------------------------------------------------
------------------------------------------------------------------------------
------------------------------------------------------------------------------
------------------------------------------------------------------------------
------------------------------------------------------------------------------
------------------------------------------------------------------------------
 The above lyrics are: Let us burn one from end to end...and pass it......    

---3---33---0--00-----------------------3---33--------------------------------
---3---33---0--00-----------------------3---33--------------------------------
------------------------------------------------------------------------------
----------2---2-----0-----------0-2-------------------------------------------
----------2---2-------3-2-0-------3-------------------------------------------
-3---3----0---0---0---------3-0-------3---3-----------------------------------
 If you dont like my fire, then dont come around......                        






Текст, аккорды и табулатура для песни "Burn One Down", исполняет "Harper Ben".
Используемые в песне аккорды можно найти в разделе Как брать аккорды. Аккорды для шестиструнной гитары. Другие песни можно найти на нашем сайте, воспользовавшись алфавитным указателем вверху страницы.


 
Ошибка в тексте? Выделите ошибку и нажмите Ctrl+Enter