INTRO:
E-----------------------------------------------------------------|
B-----------------------------------------------------------------|
G----------------------5-4-5-4------------------------------------|
D|---2-----------------------------5-4-5-4-5-4-2------------------------------|
A|---2-----------------------------3-2-3-2-5-4-2------------------------------|
E|---0-0-0-0-0-0-0-0-0-0-0-0-0-0-0---------3-2-0-0-0-0-0-0-0-0-0-0-0-0-0-0-0--|
      | P.M.....................  |             | P.M.....................  |

E-----------------------------------------------------------------|
B-----------------------------------------------------------------|
G|---5-4-5-4-12-11-------------------------------5-4-5-4----------------------|
D|---5-4-5-4-12-11-9-----------------------------5-4-5-4-5-4-2----------------|
A|---3-2-3-2-10--9-7-----------------------------3-2-3-2-5-4-2----------------|
E------0-0-0-0-0-0-0-0-0-0-0-0-0-0-0---------3-2-0-0-0-0-0-0-0-0--|
                    | P.M...................... |

E-----------------------------------------------------------------|
B-----------------------------------------------------------------|
G------5-4-5-4-5-7------------------------------------------------|
D------5-4-5-4-5-7-9----------------------------------------------|
A------3-2-3-2-3-5-7----------------------------------------------|
E|---0-0-0-0-0-0-0-------------0-0-0-0-0-0-0-0-0-0-0-0-0-0-0-0-0-0-0-0-0-0-0--|
    | P.M........ |             | P.M...................................... |

E| -----------------------|
B-------------|
G-------------|
D----------9--|
A|---7-7-9-9-10-10-9-9-7--|
E----------0--|
   | P.M............. |

VERSE:
E-----------------------------------------------------------------|
B-----------------------------------------------------------------|
G------------------------------------9-7-5-7-9--------------------|
D------------------------------------9-7-5-7-9--------------------|
A------------------------------------7-5-3-5-7--------------------|
E|---0-0-0-0-0-0-0-0-0-0-0-0-0-0-0-0-0-0-0-0-0-0-----------0-0-0-0-0-0-0-0-0--|
    | P.M...................................... |       | P.M............... |

E-----------------------------------------------------------------|
B-----------------------------------------------------------------|
G------7---9---------9--------------------------------------------|
D------5-7-7-9-12-11-9--------------------------------------------|
A--------5---7-10--9-7--------------------------------------------|
E|---0-0-0-0-0-0-0-----------------0-0-0-0-0-0-0-0-0-0-0-0-0-0-0-0-0-0-0-0-0-0|
    | P.M........ |               | P.M.......................................|

E-----------------------------------------------------------------|
B-----------------------------------------------------------------|
G|---9-7-5-7-5-7-9-------7-9---------5-7-9-------------------------------9----|
D|---9-7-5-7-5-7-9-------7-9---------5-7-9-------------------------------9----|
A|---7-5-3-5-3-5-7-------5-7---------3-5-7-------------7-7-9-9-10-10-9-9-7----|
E------0-0-0-----0-0-0-0-------0-0-0-0-0-0------------------------|
                  | P.M |   | P.M.. |     | P.M........................ |

E-----------------------------------------------------------------|
B-----------------------------------------------------------------|
G------------------------------------9-7-5-7-9--------------------|
D------------------------------------9-7-5-7-9--------------------|
A------------------------------------7-5-3-5-7--------------------|
E|---0-0-0-0-0-0-0-0-0-0-0-0-0-0-0-0-0-0-0-0-0-0-----------0-0-0-0-0-0-0-0-0--|
    | P.M...................................... |         | P.M............. |

E-----------------------------------------------------------------|
B-----------------------------------------------------------------|
G--7---9---------9------------------------------------------------|
D--5-7-7-9-12-11-9------------------------------------------------|
A----5---7-10--9-7------------------------------------------------|
E|---0-0-0-0-0-----------------0-0-0-0-0-0-0-0-0-0-0-0-0-0-0-0-0-0-0-0-0-0----|
    | P.M.... |               | P.M........................................ |

E-----------------------------------------|
B--------------------------10-------------|
G|---9-7-5-7-5-7-9-------------9-11-12----12-11-9-----|
D|---9-7-5-7-5-7-9--------------------------------12--|
A|---7-5-3-5-3-5-7------------------------------------|
E------0-0-0-0-0-0------------------------|
                  | P.M...... |

CHORUS:                 
E-----------------------------------------------|
B-----------------------------------------------|
G|------5--7--9--5--7---------------------------------------|
D|---7--5--7--9--5--7--||------10-10-9-9-7-7--------------------------10-10-9-9-7-7-|
A|---7--3--5--7--3--5--|---------10-10-9-9-7-7--------------------------|
E|---5-----------------||--0-0-----------------------------10-10--8-8---------------|
                         | P.M..................................................... |

E-----------------------------------------------------------------------|
B-----------------------------------------------------------------------|
G-----------------------------------------------------------------------|
D---------------10-10-9-9-7-7--------------------------10-10-9-9-7-7----|
A|---10-10-9-9-7-7--------0---------------10-10-9-9-7-7-----------------------------|
E------10-10--------------------------------10-10--8-8------------------|
    | P.M......................................................................... |

E-------------||
B-------------||
G|----------7-------------||
D|------7-9---10-9-7------||  || REPEAT THIS TWICE ||
A|---10--------------10---||
E-------------||

VERSE:
E----------------------------------------------------------------------|
B----------------------------------------------------------------------|
G----------------------------------------9-7-5-7-9---------------------|
D----------------------------------------9-7-5-7-9---------------------|
A----------------------------------------7-5-3-5-7---------------------|
E|---0-0-0-0-0-0-0-0-0-0-0-0-0-0-0-0-0-0-0-0-0-0-0-0-----------0-0-0-0-0-0-0-0-0-0-|
    | P.M.......................................... |         | P.M.............. |

E----------------------------------------------------------------------|
B----------------------------------------------------------------------|
G7---9-------------------------------------------------------9-7-5-7---|
D5-7-7-9-12-11-9---------------------------------------------9-7-5-7---|
A--5---7-10--9-7---------------------------------------------7-5-3-5---|
E|---0-0-0-0-----------------0-0-0-0-0-0-0-0-0-0-0-0-0-0-0-0-0-0-0-0-0-0-----------|
    | P.M.. |               | P.M...................................... |

E--------------------|
B------8-------------|
G|---5-7-9--7-9-10---10-9-7------|
D|---5-7-9------------------10---|
A|---3-5-7-----------------------|
E--------------------|

CHORUS:
SAME AS ABOVE

BRIDGE:  X 4
E----------|
B----------|
G---12/11--|
D|---9-10-9-7-9--9--9--|
A|---7--7-7-7-7--------|
E----------|
AFTER THIS COMES THIS:
E----------------------------------------|
B----------------------------------------|
G|---5-5-5-5---5-5-5-7---5-5-5-5---5-5-5-7---4-5-7---|
D|---5-5-5-5---5-5-5-7---5-5-5-5---5-5-5-7---4-5-7---|
A|---3-3-3-3---3-3-3-5---3-3-3-3---3-3-3-5---2-3-5---|
E----------------------------------------|

SOLO:
E-------------------------------------------------------------------------|
B-------------------------------------------------------------------------|
G-------------------------------------------------------------------------|
D-------------------------------------------------------------------------|
A------------------------3-3-3-3-3-3-3-3-3-3-3-3-3-3-3-3-5-5-5-5-5-5-5-5--|
E|---0-0-0-0-0-0-0-0-0-0-0-0-0-0-0-0--------------------------------------------------|
    |P.M........................ ALL

E-------------------------------------------------------------------------|
B-------------------------------------------------------------------------|
G-------------------------------------------------------------------------|
D-------------------------------------------------------------------------|
A|---5-5-5-5-5-5-5-5-----------------2-2-2-2-2-2-2-2--7-7-7-7-7-7-7-7-7-7-7-7-7-7-7-7-|
E--------3-3-3-3-3-3-3-3--------------------------------------------------|
    | P.M....................... ALL

E-------------------------------------------------------------------------|
B-------------------------------------------------------------------------|
G-------------------------------------------------------------------------|
D-------------------------------------------------------------------------|
A|---3-3-3-3-3-3-3-3-3-3-3-3-3-3-3-3-5-5-5-5-5-5-5-5-5-5-5-5-5-5-5-5------------------|
E--------------------------------------------------------3-3-3-3-3-3-3-3--|
    | P.M....................... ALL

E-------------------------------------------------------------------------|
B-------------------------------------------------------------------------|
G-------------------------------------------------------------------------|
D-------------------------------------------------------------------------|
A|---2-2-2-2-2-2-2-2---------------------------------3-3-3-3-3-3-3-3-3-3-3-3-3-3-3-3--|
E--------0-0-0-0-0-0-0-0-0-0-0-0-0-0-0-0----------------------------------|
    | P.M....................... ALL

E-------------------------------------------------------------------------|
B-------------------------------------------------------------------------|
G-------------------------------------------------------------------------|
D-------------------------------------------------------------------------|
A|---5-5-5-5-5-5-5-5-5-5-5-5-5-5-5-5-----------------2-2-2-2-2-2-2-2-7-7-7-7-7-7-7-7--|
E------------------------3-3-3-3-3-3-3-3----------------------------------|
    | P.M....................... ALL

E-------------------------------------------------------------------------|
B-------------------------------------------------------------------------|
G-------------------------------------------------------------------------|
D-------------------------------------------------------------------------|
A|---7-7-7-7-7-7-7-7-3-3-3-3-3-3-3-3-3-3-3-3-3-3-3-3-5-5-5-5-5-5-5-5-5-5-5-5-5-5-5-5--|
E-------------------------------------------------------------------------|
    | P.M....................... ALL

E-----|
B-----|
G-----|
D|---2--4--5--7---|
A|---2--4--5--7---|
E|---0--2--3--5---|

SOME BRIDGE OR SOMETHING:
E-----------|
B-----------|
G|---5--7--5--7--5--7---|
D|---5--7--5--7--5--7---|
A|---3--5--3--5--3--5---|
E-----------|

VERSE:
SAME AS VERSE 2

CHORUS:
SAME AS ABOVE

OUTRO:
E-----------------------------------------------------------------------|
B-----------8-------------------8-------------------8-------------------|
G|---9--9--9--9--7-9-10---10-9-7-----7-9-10---10-9-7-----7-9-10---10-9-7-----9-7-9--|
D|---9--9--9--9------------------10------------------10------------------10--9-7-9--|
A|---7--7--7--7--------------------------------------------------------------7-5-7--|
E-----------------------------------------------------------------------|


Текст, аккорды и табулатура для песни "Back To Back", исполняет "HammerFall".
Используемые в песне аккорды можно найти в разделе Как брать аккорды. Аккорды для шестиструнной гитары. Другие песни можно найти на нашем сайте, воспользовавшись алфавитным указателем вверху страницы.


Слушать онлайн Back to back


HammerFallBack to back на Яндекс.Музыке


 
Ошибка в тексте? Выделите ошибку и нажмите Ctrl+Enter