NOTE: TUNE GUITAR A HALF STEP DOWN TO Eb

INTRO:
E------------------------------------------------------------------------|
B------------------------------------------------------------------------|
G|---7--9-----------------9------------7/9--------------------------7--9-------------|
D|---7--9----------7------9------------7/9--------------------------5--7--9----------|
A|---5--7---7-9-10---10-9-7------------5/7--------------------------------7----------|
E---------------0-0-0--0-0-----0-0-0--0-0-0--0-0-0--0-0---------0-0-0--0-|
                           | P.M..... |   | P.M................... |       | P.M.....

E-------------------------------------------|
B-------------------------------------------|
G|-----7/9------------7/9--------------------------9----|
D|-----7/9------------7/9-------------------7------9----|
A|-----5/7------------5/7------------7-9-10---10-9-7----|
E|---0-----0-0-0--0-0-----0-0-0--0-0--------------------|
   ...|   | P.M..... |   | P.M..... |

VERSE:
E------------------------------------------------------------------------|
B------------------------------------------------------------------------|
G---7/9--------------------------7--9------------------------------------|
D---7/9--------------------------5--7--9-9--7--5--------------------7----|
A---5/7--------------------------------7-9--7--5-------------7-9-10---10-|
E|---0-0-0--0-0-----0-0-0--0-0-0--0-0-0--0-0---------7--5--3--0-0-0--0-0-------------|
    | P.M..... |   | P.M................... |                | P.M..... |

E------------------------------------------------------------------------|
B------------------------------------------------------------------------|
G|-----9------------7/9------------7/9-----------------------------------------------|
D|-----9------------7/9------------7/9-------------------7------9--7--5--------------|
A|---9-7------------5/7------------5/7------------7-9-10---10-9-9--7--5--------------|
E|-------0-0-0--0-0-----0-0-0--0-0-----0-0-0--0-0---------------7--5--3-0-0-0--0-0-0-|
        | P.M..... |   | P.M..... |   | P.M..... |                     | P.M.........

E-----------------------------------------------------------------|
B-----------------------------------------------------------------|
G------9------------7/9------------5------------------------------|
D---7--9------------7/9------------5--7--9-----9-------------9----|
A---7--7------------5/7------------3--7--9-----9-------------9----|
E|---0-0-0--0-0-5----0-0-0--0-0-----0-0-0--0-0----5--7-7-7-7-7-7-7-8-7-5-7----|
    .......... |    | P.M..... |   | P.M..... |       |P.M| |P.M|

CHORUS:
E------------------------------------------------------------------------|
B------------------------------------------------------------------------|
G----------------9--7--5-----5-----4-------------------------------------|
D|---2-----2-----2-----2-----9--7--5-----5-----4-5-----5-----4-----2-----2-----2-----|
A|---2-----2-----2-----2-----7--5--3-3-3-3-3-3-2-5-----5-----4-----2-----2-----2-----|
E|---0-0-0-0-0-0-0-0-0-0-0-0---------------------3-3-3-3-3-3-2-3-2-0-0-0-0-0-0-0-0-0-|
      |P.M| |P.M| |P.M| |P.M|       |P.M| |P.M|   |P.M| |P.M| |P.M| |P.M| |P.M| |P.M|

E--------------------------------------------------------|
B--------------------------------------------------------|
G|---------9--7--5-----5-----4---------------2------------------9----|
D|---2-----9--7--5-----5-----4-5-----5-----4-2--5--------7------9----|
A|---2-----7--5--3-3-3-3-3-3-2-5-----5-----4-0--5-7-9-10---10-9-7----|
E|---0-0-0---------------------3-3-3-3-3-3-2----3--------------------|
      |P.M|       |P.M| |P.M|   |P.M| |P.M|     

VERSE:
SAME AS ABOVE

CHORUS:
SAME AS ABOVE

BRIDGE:
E------------------------------------------------------------------------|
B------------------------------------------------------------------------|
G|---11-11-----------------------9-11-12--11-11-----------------------9-11-14--11-11-|
D|---11-11---11---11---11---11---9-11-12--11-11---11---11---11---11---9-11-14--11-11-|
A|---------9----9----9----9----9----------------9----9----9----9----9----------------|
E------------------------------------------------------------------------|
          | |  | |  | |  | |  | |              | |  | |  | |  | |  | |

E--------------------------------------------------------------|
B--------------------------------------------------------------|
G--------------9-11-12--11-11----------------------------------|
D|-----11---11---11---11---9-11-12--11-11---11---11---11---11---9-7-4-2----|
A|---9----9----9----9----9----------------9----9----9----9----9-9-7-4-2----|
E---------------------------------------------------7-5-2-0----|
    | |  | |  | |  | |  | |              | |  | |  | |  | |

SOLO:
E------------------------------------------------------------------------|
B------------------------------------------------------------------------|
G------------2-------------------------------------------2-------------4-|
D|---4-----4---4-------2-2-4-----4---4-------2-5-4-----4---4-------2-2-4-----4-----4-|
A|---4-----4---4-------2-0-4-----4---4-------2-5-4-----4---4-------2-0-4-----4-----2-|
E|---2-2-2-2-2-2-2-2-2-0---2-2-2-2-2-2-2-2-2-0-3-2-2-2-2-2-2-2-2-2-0---2-2-2-2-2-2---|
      |P.M| | | |P.M..|     |P.M| | | |P.M..|     |P.M| | | |P.M..|     |P.M| |P.M|

E------------------------------------------------------------------------|
B------------------------------------------------------------------------|
G|---2----------------------------5-------------------------------------------5------|
D|---2--4--2--7-----7---7-------5-5-7-----7---7-------5-8-7-----7---7-------5-5-7----|
A|---0--4--2--7-----7---7-------5-3-7-----7---7-------5-8-7-----7---7-------5-3-7----|
E|------2--0--5-5-5-5-5-5-5-5-5-3---5-5-5-5-5-5-5-5-5-3-6-5-5-5-5-5-5-5-5-5-3---5-5-5|
               |P.M| | | | P.M|      |P.M| | | | P.M.|     |P.M| | | | P.M.|     |P.M|

E---------|
B---------|
G---------|
D|---7-----7-5--------|
A|---7---------8-7----|
E|---5-5-5------------|
      |P.M|

BRIDGE:
E------------------------------|
B------------------------------|
G|---7--3--7-----------7--3--------5--2----|
D|---7--3--7--3--5--2--7--3--3--5--5--2----|
A|---5--1--5--3--5--2--5--1--3--5--3--0----|
E-1--3--0--------1--3----------|

CHORUS: ( FIRST AS ABOVE THEN LIKE THIS )
E------------------------------------------------------------------------|
B------------------------------------------------------------------------|
G---------------11--9--7-----7-----6-7-----7-----4-----------------------|
D|---4-----4-----4-----4----11--9--7-----7-----6-7-----7-----4-----4-----4-----4-----|
A|---4-----4-----4-----4-----9--7--5-5-5-5-5-5-4-5-5-5-5-5-5-2-----4-----4-----4-----|
E|---2-2-2-2-2-2-2-2-2-2-2-2-----------------------------------5-4-2-2-2-2-2-2-2-2-2-|
      |P.M| |P.M| |P.M| |P.M|       |P.M| |P.M|   |P.M| |P.M| |P.M| |P.M| |P.M| |P.M|

E-------------------------------------------|
B-------------------------------------------|
G|--------11--9--7-----7-----6-2-----2------------------|
D|---4----11--9--7-----7-----6-2-----2-----6-7-6-2-4----|
A|---4-----9--7--5-5-5-5-5-5-4-0-0-0-0-0-0-6-7-6-2-4----|
E|---2-2-2---------------------------------4-5-4-0-2----|
      |P.M|       |P.M| |P.M|   |P.M| |P.M|

OUTRO:
E------------------------------------------------------------------------|
B------------------------------------------------------------------------|
G--------------------9-11-12------------------------------9-11-14--11-11-|
D|---11-11---11---11---11---11---9-11-12--11-11---11---11---11---11---9-11-14--11-11-|
A|---------9----9----9----9----9----------------9----9----9----9----9----------------|
E------------------------------------------------------------------------|
          | |  | |  | |  | |  | |              | |  | |  | |  | |  | |

E---------------------------------------------------|
B---------------------------------------------------|
G--------------9-11-12--11-11--------4-2------------|
D|-----11---11---11---11---9-11-12--11-11---11---4-2-4-2-4-4----|
A|---9----9----9----9----9----------------9----9-2-0-4-2-4-4----|
E----------------------------------------2-0-2-2----|
    | |  | |  | |  | |  | |              | |  | |


Текст, аккорды и табулатура для песни "At The End Of The Rainbow", исполняет "HammerFall".
Используемые в песне аккорды можно найти в разделе Как брать аккорды. Аккорды для шестиструнной гитары. Другие песни можно найти на нашем сайте, воспользовавшись алфавитным указателем вверху страницы.


Слушать онлайн At the end of the rainbow


HammerFallAt the end of the rainbow на Яндекс.Музыке


 
Ошибка в тексте? Выделите ошибку и нажмите Ctrl+Enter