H-Blockx - Move - time to move
Tabbed by: [email protected] 
member of the bass tab archive tabbing army
Tuning: Standard 4-String Bass (E-A-D-G)

Intro part1
G:--------------------------------------------------------------------------
D:--------------------------------------------------------------------------
A:----7--6--5-----------------------------7--6--5---------------------------
E:-0-----------7--0--3--5--6--5--3--0--0-----------7--0--5--7--3/15---------
Part2
G:--------------------------------------------------------------------------
D:--------------------------------------------------------------------------
A:----7--6--5-----------------------------7--6--5---------------------------
E:-0-----------7--0--3--5--6--5--3--0--0-----------7--0--3--4--5--6--7------

Chorus
G:--------------------------------------------------------------------------
D:-----------------------------------------------------------------------5--
A:-----7--6--5------------7--6--5------------7--6--5------------7--6--5-----
E:--0-----------5h6----0-----------5h6----0-----------5h6----0--------------

G:--------------------------------------------------------------------------
D:-----------------------------------------------------------------------5--
A:-----7--6--5------------7--6--5------------7--6--5------------7--6--5-----
E:--0-----------5h6----0-----------5h6----0-----------5h6----0--------------

Verse Part1
G:--------------------------------------------------------------------------
D:--------------------------------------------------------------------------
A:-----7--6--5-----------------------------7--6--5--------------------------
E:--0-----------7--0--3--5--6--5--3--0--0-----------7--0--3--4--5--6--7-----
Part2
G:--------------------------------------------------------------------------
D:--------------------------------------------------------------------------
A:-----7--6--5-----------------------------7--6--5--------------------------
E:--0-----------7--0--3--5--6--5--3--0--0-----------7--0--5--7--3-----------
Part1 again
G:--------------------------------------------------------------------------
D:--------------------------------------------------------------------------
A:----7--6--5-----------------------------7--6--5---------------------------
E:-0-----------7--0--3--5--6--5--3--0--0-----------7--0--3--4--5--6--7------

Chorus
G:--------------------------------------------------------------------------
D:-----------------------------------------------------------------------5--
A:-----7--6--5------------7--6--5------------7--6--5------------7--6--5-----
E:--0-----------5h6----0-----------5h6----0-----------5h6----0--------------

G:--------------------------------------------------------------------------
D:-----------------------------------------------------------------------5--
A:-----7--6--5------------7--6--5------------7--6--5------------7--6--5-----
E:--0-----------5h6----0-----------5h6----0-----------5h6----0--------------

Bridge
G:--------r------r------r------------------
D:--------e------e------e------------------
A:--------s------s------s------------------
E:--0-----t--0---t---0--t---3--4--5--6--7--

2nd part from verse
G:--------------------------------------------------------------------------
D:--------------------------------------------------------------------------
A:-----7--6--5-----------------------------7--6--5--------------------------
E:--0-----------7--0--3--5--6--5--3--0--0-----------7--0--5--7--3-----------

1st part from verse
G:--------------------------------------------------------------------------
D:--------------------------------------------------------------------------
A:----7--6--5-----------------------------7--6--5---------------------------
E:-0-----------7--0--3--5--6--5--3--0--0-----------7--0--3--4--5--6--7------

Chorus
G:--------------------------------------------------------------------------
D:-----------------------------------------------------------------------5--
A:-----7--6--5------------7--6--5------------7--6--5------------7--6--5-----
E:--0-----------5h6----0-----------5h6----0-----------5h6----0--------------

G:--------------------------------------------------------------------------
D:-----------------------------------------------------------------------5--
A:-----7--6--5------------7--6--5------------7--6--5------------7--6--5-----
E:--0-----------5h6----0-----------5h6----0-----------5h6----0--------------

First Intermission (23 times)
G:-------------------
D:-------------------
A:--------7--6--5----
E:-0--0------------7-

Chorus
G:--------------------------------------------------------------------------
D:-----------------------------------------------------------------------5--
A:-----7--6--5------------7--6--5------------7--6--5------------7--6--5-----
E:--0-----------5h6----0-----------5h6----0-----------5h6----0--------------

G:--------------------------------------------------------------------------
D:-----------------------------------------------------------------------5--
A:-----7--6--5------------7--6--5------------7--6--5------------7--6--5-----
E:--0-----------5h6----0-----------5h6----0-----------5h6----0--------------

----------------PAUSE------------------

Second Intermission (20 times)
G:-------------------
D:-------------------
A:--------7--6--5----
E:----0------------7-
 



Текст, аккорды и табулатура для песни "Move", исполняет "H-blockx".
Используемые в песне аккорды можно найти в разделе Как брать аккорды. Аккорды для шестиструнной гитары. Другие песни можно найти на нашем сайте, воспользовавшись алфавитным указателем вверху страницы.


 
Ошибка в тексте? Выделите ошибку и нажмите Ctrl+Enter