ONE LIFE, ONE CHANCE - H2O

By: Dan M: [email protected] (solo modified & fixed by Michael E)

INTRO:	Guitar 1:
e|-----------------------------------------------------------------------------------------|
B|-----------------------------------------------------------------------------------------|
G|-----------------------------------------------------------------------------------------|
D|---5---------------------------5-5-5-5-5-5-5-5-x-----------------------5-5-5-5-5-5-5--5--|
A|---3---5---3-3-3-3-3-3-3-3-x---3-3-3-3-3-3-3-3-x---3-3-3-3-3-3-3-3-x---3-3-3-3-3-3-3--3--|
E|-------3---1-1-1-1-1-1-1-1-x-----------------------1-1-1-1-1-1-1-1-x---------------------|

VERSE:
e|----------------------------------------------------------|
B|----------------------------------------------------------|
G|----------------------------------------------------------| X 2
D|--------------------5---5--5--5---------------------------|
A|---3-xx--3-3-3-3----3---3--3--3---------------------------|
E|---1-xx--1-1-1-1------------------------------------------|

on 3rd time in verse
e|---------------------------------------------------------------------|
B|---------------------------------------------------------------------|
G|---------------------------------------------------------------------|
D|-------------------------------5-5-5-5-5-5---------------------------|
A|---3-xx--3-3-3-3/7-7-7-7-7-7-7-3-3-3-3-3-3-x-5-x-5-x-5---------------|
E|---1-xx--1-1-1-1/5-5-5-5-5-5-5-------------x-3-x-3-x-3---------------|

Repeat VERSE:
e|--------------------------------------------------------|
B|--------------------------------------------------------|
G|--------------------------------------------------------| X 2
D|--------------------5---5--5--5-------------------------|
A|---3-xx--3-3-3-3----3---3--3--3-------------------------|
E|---1-xx--1-1-1-1----------------------------------------|

on 3rd time in repeat verse					
e|--------------------------------------------------------------------------|
B|--------------------------------------------------------------------------|
G|--------------------------------------------------------------------------|
D|-------------------------------5-5-5-5-5-5--------------------------------|
A|---3-xx--3-3-3-3/7-7-7-7-7-7-7-3-3-3-3-3-3-x-5-x-5------------------------|
E|---1-xx--1-1-1-1/5-5-5-5-5-5-5-------------x-3-x-3------------------------|

Fill 1:
e|--------------------------------------|
B|--------------------------------------|
G|--7-9-10-9-7--------------------------|
D|----------------10-9-7----------------|
A|--------------------------------------|
E|--------------------------------------|

CHORUS:
e|--------------------------------------------------------------------------|
B|--------------------------------------------------------------------------|
G|--------------------------------------------------------------------------|
D|---------------5-5-5-5-5---------------------5-5-5-5-5--------------------|
A|---3-3--5-5-5--3-3-3-3-3---------3-3--5-5-5--3-3-3-3-3--------------------|
E|---1-1--3-3-3--------------------1-1--3-3-3-------------------------------|

e|--------------------------------------------------------------------------|
B|--------------------------------------------------------------------------|
G|--------------------------------------------------------------------------|
D|-----------------5-5-5-5-5/7-7-7-7/10/9/5---5------5--5-------------------|
A|---3-3--5-5-5--3-3-3-3-3/5-5-5-5/8/7/3----3-5--3-5-3--5-------------------|		
E|---1-1--3-3-3--------------------------------------3--3-------3-----------|

SOLO : Guitar 2:  Other guitar repeats Chorus during
e|------------------------------------------------------------------------------------------------------------5--------|
B|---------------------------------------------------------------------------------------------------------------8-----|
G|---9---10--9--7--9--7---------9--10--9--7---9----9--10--9--7--9--7-----------------------------5---------7-----------|
D|--------------------------10-----------------------------------------10-7-----7----------5--7----7--5--7-------------|
A|---------------------------------------------------------------------------10------5--7------------------------------|
E|---------------------------------------------------------------------------------------------------------------------|

Fill 2:  Guitar 1
e|--------------------------------------------------------------------------|
B|--------------------------------------------------------------------------|
G|--------------------------------------------------------------------------|
D|------5-------5--7--------------------------------------------------------|
A|---3--3---3---3--5---x--5--x--5--x---5------------------------------------|
E|---1------1----------x--3--x--3--x---3------------------------------------|

Fill:  Guitar 2
e|--------------------------------------------------------------------------|
B|--------------------------------------------------------------------------|
G|--7-9-10-9-7--------------------------------------------------------------|
D|----------------10-9-7----------------------------------------------------|
A|--------------------------------------------------------------------------|
E|--------------------------------------------------------------------------|

Repeat Chorus
Repeat End of Chorus several times listen to CD for
exact

OUTRO: 
e|--------------------------------------------------------------------------|
B|--------------------------------------------------------------------------|
G|---7-7-7-7--7---7/10/9/5--------------------------------------------------|
D|--------------------------------------------------------------------------|
A|--------------------------------------------------------------------------|
E|--------------------------------------------------------------------------|


Текст, аккорды и табулатура для песни "One Life One Chance", исполняет "H2o".
Используемые в песне аккорды можно найти в разделе Как брать аккорды. Аккорды для шестиструнной гитары. Другие песни можно найти на нашем сайте, воспользовавшись алфавитным указателем вверху страницы.


 
Ошибка в тексте? Выделите ошибку и нажмите Ctrl+Enter