e|-0-------0---------0-0------0------3-0-----------|
B|---1---1---1----1-----1---1---1--------1---------|
G|-----2-------2----------2-------2-------2--------|
D|-------------------------------------------------|
A|-------------------------------------------------|
E|-------------------------------------------------|


e|-0-------0----------0-0------3-0---------0-----1--0---0-|
B|---0---0---0-----0---------------1----3-----3-------3---|
G|-----1---------1---------0---------0--------------------|
D|--------------------------------------------------------|
A|--------------------------------------------------------|
E|--------------------------------------------------------|


e|--------------------------------------------------------|
B|-----------------1---------1-----------0----------------|
G|---2------1---------------------------------------------|
D|--------------------------------------------------------|
A|--------------------------------------------------------|
E|--------------------------------------------------------|


e|--------------------------------------------------------|
B|-----------------1---------1-----------0----------------|
G|----2-----1---------------------------------------------|
D|--------------------------------------------------------|
A|--------------------------------------------------------|
E|--------------------------------------------------------|

e|--------------------------------------------------------|
B|-----------------1---------1-----------0----------------|
G|---2------1---------------------------------------------|
D|--------------------------------------------------------|
A|--------------------------------------------------------|
E|--------------------------------------------------------|

e|--------------------------------------------------------|
B|---------------0--1--0--1-------1----0------------------|
G|----2-----1---------------------------------------------|
D|--------------------------------------------------------|
A|--------------------------------------------------------|
E|--------------------------------------------------------|

e|--------------------------------------------------------|
B|---------------0--1--0--1-------1----0------------------|
G|---2----4--1--------------------------------------------|
D|--------------------------------------------------------|
A|--------------------------------------------------------|
E|--------------------------------------------------------|

e|--------------------------------------------------------|
B|-----------------1--------------1----0------------------|
G|---2------1---------------------------------------------|
D|--------------------------------------------------------|
A|--------------------------------------------------------|
E|--------------------------------------------------------|

e|--------------------------------------------------------|
B|------------------1-------------1----0------------------|
G|---2------1---------------------------------------------|
D|--------------------------------------------------------|
A|--------------------------------------------------------|
E|--------------------------------------------------------|

e|--------------------------------------------------------|
B|---------------0--1--0--1-------1----0------------------|
G|---2-----4-1--------------------------------------------|
D|--------------------------------------------------------|
A|--------------------------------------------------------|
E|--------------------------------------------------------|


e|--------------------------------------------------------|
B|------------------1-------------1----0------------------|
G|---2------1---------------------------------------------|
D|--------------------------------------------------------|
A|--------------------------------------------------------|
E|--------------------------------------------------------|

e|--------------------------------------------------------|
B|------------------1-------------5----3------------------|
G|---2------1---------------------------------------------|
D|--------------------------------------------------------|
A|--------------------------------------------------------|
E|--------------------------------------------------------|

e|--------------------------------------------------------|
B|--------------------------------------------------------|
G|---5555555-7--4444444-5-2222222-4-11111-----------------|
D|--------------------------------------------------------|
A|--------------------------------------------------------|
E|--------------------------------------------------------|

e|-0-------0---------0-0------0------3-0-----------|
B|---1---1---1----1-----1---1---1--------1---------|
G|-----2-------2----------2-------2-------2--------|
D|-------------------------------------------------|
A|-------------------------------------------------|
E|-------------------------------------------------|


e|-0-------0----------0-0------3-0---------0-----1--0---0-|
B|---0---0---0-----0---------------1----3-----3-------3---|
G|-----1---------1---------0---------0--------------------|
D|--------------------------------------------------------|
A|--------------------------------------------------------|
E|--------------------------------------------------------|

e|--------------------------------------------------------|
B|-----------------1---------1-----------0----------------|
G|---2------1---------------------------------------------|
D|--------------------------------------------------------|
A|--------------------------------------------------------|
E|--------------------------------------------------------|


e|--------------------------------------------------------|
B|-----------------1---------1-----------0----------------|
G|----2-----1---------------------------------------------|
D|--------------------------------------------------------|
A|--------------------------------------------------------|
E|--------------------------------------------------------|

e|--------------------------------------------------------|
B|-----------------1---------1-----------0----------------|
G|---2------1---------------------------------------------|
D|--------------------------------------------------------|
A|--------------------------------------------------------|
E|--------------------------------------------------------|


e|--------------------------------------------------------|
B|---------------0--1--0--1-------1----0------------------|
G|---2----4--1--------------------------------------------|
D|--------------------------------------------------------|
A|--------------------------------------------------------|
E|--------------------------------------------------------|

e|--------------------------------------------------------|
B|-----------------1--------------1----0------------------|
G|---2------1---------------------------------------------|
D|--------------------------------------------------------|
A|--------------------------------------------------------|
E|--------------------------------------------------------|

e|--------------------------------------------------------|
B|------------------1-------------1----0------------------|
G|---2------1---------------------------------------------|
D|--------------------------------------------------------|
A|--------------------------------------------------------|
E|--------------------------------------------------------|

e|--------------------------------------------------------|
B|---------------0--1--0--1-------1----0------------------|
G|---2-----4-1--------------------------------------------|
D|--------------------------------------------------------|
A|--------------------------------------------------------|
E|--------------------------------------------------------|


e|--------------------------------------------------------|
B|------------------1-------------1----0------------------|
G|---2------1---------------------------------------------|
D|--------------------------------------------------------|
A|--------------------------------------------------------|
E|--------------------------------------------------------|

e|--------------------------------------------------------|
B|------------------1-------------5----3------------------|
G|---2-----4-1--------------------------------------------|
D|--------------------------------------------------------|
A|--------------------------------------------------------|
E|--------------------------------------------------------|

e|----------------------------------------------------------|
B|----------------------------------------------------------|
G|---5555555-7--4444444-5-2222222-4-11111-------------------|
D|----------------------------------------------------------|
A|----------------------------------------------------------|
E|----------------------------------------------------------|
e|-0-------0---------0-0------0------3-0--------------------|
B|---1---1---1----1-----1---1---1--------1------------------|
G|-----2-------2----------2-------2-------2-----------------|
D|----------------------------------------------------------|
A|----------------------------------------------------------|
E|----------------------------------------------------------|


e|-0-------0----------0-0------3-0---------0-----1--0---0-|
B|---0---0---0-----0---------------1----3-----3-------3---|
G|-----1---------1---------0---------0--------------------|
D|--------------------------------------------------------|
A|--------------------------------------------------------|
E|--------------------------------------------------------|



Текст, аккорды и табулатура для песни "Faces In The Hall", исполняет "Gym Class Heroes".
Используемые в песне аккорды можно найти в разделе Как брать аккорды. Аккорды для шестиструнной гитары. Другие песни можно найти на нашем сайте, воспользовавшись алфавитным указателем вверху страницы.


Слушать онлайн Faces In The Hall


Gym Class HeroesFaces In The Hall на Яндекс.Музыке


 
Ошибка в тексте? Выделите ошибку и нажмите Ctrl+Enter