Band: Gwar
Song: F*cking An Animal
Album: We Kill Everything



Tune to E Flat

INRTO
e ----------------------------------------------------------------|
b ----------------------------------------------------------------|
g ----------------------------------------------------------------|
d -7--------------------5--------------------5--------------------|
a -5--------------------3--------------------3--------------------|
E ----------------------------------------------------------------|

VERSE x2
e -----------------------------|
b -----------------------------|
g -----------------------------|
d -----------------------------|
a ------------5-5-5-7-5--------|
E -3-----5-3-------------7-5---|

ENDING IA
e -----------------------------------------------------------|
b -----------------------------------------------------------|
g -----------------------------------------------------------|
d -----------------------------------------------------------|
a ------------5-5-5-7-5---------5---------------------5------|
E -3-----5-3-------------7-5-0--3-----------------------7-5--|

REPEAT VERSE x2

ENDING IB
e ----------------------------------------------------------|
b ----------------------------------------------------------|
g ----------------------------------------------------------|
d ----------------------------------------------------------|
a ------------5-5-5-7-5-------5-----------------------------|
E -3-----5-3-------------7-5--3-----------------------------|

REPEAT VERSE x2

ENDING II
e -----------------------------------------------------------|
b -----------------------------------------------------------|
g -----------------------------------------------------------|
d -----------------------------------------------------------|
a ------------5-5-5-7-5--------5----------5----------5-------|
E -3-----5-3-------------7-5---3----------3----------3-------|

CHORUS x2
e ----------------------------------------------------------|
b ----------------------------------------------------------|
g ----------------------------------------------------------|
d ---7---------------9---------------7---------5------------|
a ---5---------------7---------------5---------3------------|
E ----------------------------------------------------------|

REPEAT VERSE x2 [WITH SOLO]
REPEAT ENDING IB

REPEAT VERSE x2
REPEAT ENDING IB

REPEAT VERSE x2
REPEAT ENDING II

REPEAT CHORUS x2

REPEAT VERSE x2
REPEAT ENDING IB

REPEAT VERSE x2

OUTRO
e ---------------------------------------------------|
b ---------------------------------------------------|
g ---------------------------------------------------|
d ------------7----------5---------------------------|
a ------------5----------3----------5---------5-5-5--|
E -3-----5-3------------------------3---------3-3-3--|


get Gwar lyrics and tabs at http://www.gwar.net


Текст, аккорды и табулатура для песни "Fuckin A Animal", исполняет "Gwar".
Используемые в песне аккорды можно найти в разделе Как брать аккорды. Аккорды для шестиструнной гитары. Другие песни можно найти на нашем сайте, воспользовавшись алфавитным указателем вверху страницы.


 
Ошибка в тексте? Выделите ошибку и нажмите Ctrl+Enter