GutterMouth
Song:      Teri Yakimoto
Album:     Teri Yakimoto
Tabbed by: BassD

				>=Play that note several time

Intro(x3)
G|---------------------------------------------------------------------------|
D|------44-22-11----------00-22----------------------------------------------|
A|--22--------------00-44----------------------------------------------------|
E|---------------------------------------------------------------------------|

G|---------------------------------------------------------------------------|
D|------44-22-11-------22-00-------------------------------------------------|
A|--22--------------00-------00----------------------------------------------|
E|---------------------------------------------------------------------------|

G|---------------------------------------------------------------------------|
D|------44-22-11-------22-00-------------2211--------------------------------|
A|--22--------------00-------00---------------55-44--------------------------|
E|-------------------------------0-2-4-5-------------------------------------|

End of Intro(x3)                 (At the third time at the end)
G|------------------------------|--------------------------------------------|
D|------11-22-44-------22-00----|--------------------------------------------|
A|--22--------------00-------00-|--------------------------------------------|
E|------------------------------|--0ring-------------------------------------|

Verse
G|--------------|------------------------------------------------------------|
D|--------------|------------------------------------------------------------|
A|--2>-4>-0>----|---------2/7ring--77-66-55-44-------------------------------|
E|--------------|--0ring-----------------------------------------------------|

G|--------------|------------------------------------------------------------|
D|--------------|------------------------------------------------------------|
A|--2>-4>-0>----|---------2/7ring--------------------------------------------|
E|--------------|--0ring-----------------------------------------------------|

Chorus
G|--------------------|------------------------------------------------------|
D|-------2-222-2-222--|------------------------------------------------------|
A|--------------------|--------------2/7ring---------------------------------|
E|--4-5---------------|--4-5--0ring------------------------------------------|

Bridge(play 1 x1 then 2 x1 either)(1)
G|---------------------------------------------------------------------------|
D|--------------------------------222221-------------------------------------|
A|--2>-------2>-------2>-4>-0>-----------5-4---------------------------------|
E|-----4>-5>----4>-5>----------0>--------------------------------------------|

(2)
G|---------------------------------------------------------------------------|
D|---------------------------------------------------------------------------|
A|--2>-------2>-------2>---------------2/7ring-------------------------------|
E|-----4>-5>----4>-5>----4>-5>--0ring----------------------------------------|

(guitar solo 1)x2
G|(first time)----------------------------|(second 
time)---------------------|
D|----------------------------------------|----------------------------------|
A|--2>-------2>-------2>-------------2/7>-|--2/7ring-------------------------|
E|-----4>-5>----4>-5>----4>-5>-0ring------|----------------------------------|

(guitar solo 2)
G|---------------------------------------------------------------------------|
D|---------------------------------------------------------------------------|
A|--2>-------2>-------2>-------2>-------2>-------2>-------2>-------2>--------|
E|-----4>-5>----4>-5>----4>-5>----4>-5>----4>-5>----4>-5>----4>-5>----4>-5>--|

(end with chorus)x1
G|------------------|--------------------------------------------------------|
D|------2-222-2-222-|----------2ring-----------------------------------------|
A|------------------|--------------------------------------------------------|
E|--4-5-------------|--4-5-0-0-----------------------------------------------|

PLay in Order:Intro x3
              End of intro x3
              Verse x1
              Chorus x1
              Verse x1
              Chorus x1
              Bridge x1
              Chorus x1
              GuitarSolo 1 x2
              Chorus x1
              GuitarSolo 2 x1
              End with Chorus x1

For any comment,question about this tab E-mail me at
  [email protected]

[email protected]--------------


Текст, аккорды и табулатура для песни "Teri Yakimoto", исполняет "Guttermouth".
Используемые в песне аккорды можно найти в разделе Как брать аккорды. Аккорды для шестиструнной гитары. Другие песни можно найти на нашем сайте, воспользовавшись алфавитным указателем вверху страницы.


 
Ошибка в тексте? Выделите ошибку и нажмите Ctrl+Enter