Guns N Roses - Rocket Queen 
 tabbed for bass by Andrew Goktepe 
 
 
 Intro
 
 ------------------------------------------------------
 ---2---2h4----------------------------2---2h4---------
 ------------------------------------------------------
 ----------------0---2------0---2----------------02----
 
 ---------------------------------------
 -------4---2---4-------4---2---1h2-----
 ---------------------------------------
 ---0---------------0-------------------
 
 -----------------------------|
 |*--------------------------------------*|
 |*-----------0h1-----------0h1---0h1----*|
 |----0---2---------0---2-----------------|
 
 play 15 times, then
 
 -------------------------
 -------------------------
 -----------0h1-----------
 ---0---2---------2---0---
 
 
 Verse
 
 riff 1
 --------------------------------------
 --------------------------------------
 -----------0h1-----------0h1---0h1----
 ---0---2---------0---2----------------
 
 riff 2
 -----------------------------------------
 -----------0h1---------------0h1---0h1---
 ---0---2---------0---0---2---------------
 -----------------------------------------
 
 riff 3
 -----------------------------------------
 -----------2h3---------------2h3---2h3---
 ---2---4---------2---2---4---------------
 -----------------------------------------
 
 riff 4 (leads into chorus)
 ----------------------------------------------------
 ---2---2---2---2---2---2---2---2---2---2---2---2----
 ----------------------------------------------------
 ----------------------------------------------------
 
 Chorus
 
 ----------------------------------
 |*--------------------------------------------
 |*---2---0------------------------------------
 -2---2---2---2---2---2---4---0----
 
 ------------------------
 ---2---2---2---2---2----
 ------------------------
 ------------------------
 
 -----------------------------------------------|
 ----------------------------------------------*|
 ---0------2-----------------------------------*|
 -----------------0------2------2---2---2---2---|
 
 -------------------------------------------------------
 ---4---2-----------------------------------------------
 -----------4---3---2---0-------3---2---0---------------
 ---------------------------2---------------0------1----
 
 first time, return to verse
 
 -2h3---------------2h3---2h3----|
 |*---2---4---------2---2---4---------------*|
 |*-----------------------------------------*|
 --------------------------------|
 
 
 Guitar Solo
 
 play riff 1 of verse
 
 
 part after guitar solo
 
 riff 1 of verse, then
 
 --------------------------
 --------------------------
 -----------0h1------------
 ---0---2---------2---0----
 
 ---------------------------------|
 |*------------------------------------------*|
 |*-----------3h4---------------3h4---3h4----*|
 |----3---5---------3---3---5-----------------|
 
 -------------------------------------------
 -------------------------------------------
 -----------5h6---------------5h6---5h6-----
 ---5---7---------5---5---7-----------------
 
 ---------------------------
 ---------------------------
 -----------5h6---5h6-------
 ---5---7---------------7---
 
 
 
 ------------------------------------------|
 |*-----------2h3-------------------------------2h3---*|
 |*---2---4---------4-------------------2---4---------*|
 -----------0---2---3---4------------------|
 
 -------------------------------------
 -----------2h3-----------------------
 ---2---4---------4-------------------  first time, go to chorus 
 ---------------------0---2---3---4---
 
 after chorus,
 
 ------------------------------------------------------------------
 -----------------------------------4---4---4---4---4---4---4---4--
 ------------------------------------------------------------------
 ---2---2---2---2---2---2---2---2----------------------------------
 
 ----------------------------|
 |*-------------------------------------*|
 |*-----------7------------------------*|
 |----0---0------------------------------|
 
 --------------------------------4---4---4---4---4---4---4------
 ---------------------------------------------------------------
 -----------7-------0-------2----------------------------------
 ---0---0--------0-------0--------------------------------------
 
 --------------------------------------------------------------------
 --------------------------------------------------------------------
 -----------7---0---2---0---4---4---4---2p0---------2---4---4-------
 ---0---0--------------------------------------3h4---------------3h4-
 
 -------------------------------------------------------------
 --------------------------------------0---1------------------
 -------7------0---1---2------2---4-----------2--------------
 ---0----------------------------------------------4---2------
 
 ---------------------------------------------------------------
 ---------------------------------------------------------------
 -------7---0---2---0---4------0--------------------------2----
 ---0-------------------------------2------0---0---2---0--------
 
 -------------------------------------------------------------------
 -----------7-------------------------------------------------------
 ---2---2----------2---4---------4---6/7------0---2------2---2------
 ----------------------------------------------------------------3--
 
 -----------------------------------------------------
 -------2---------------------------------------------
 -----------2---4------4---4---6---7---7---9---2------
 ---0-------------------------------------------------
       It`s such a lonely place...
 
 --------------4-------------------------------------------
 ----------------------------------------------------------
 ------2---2-------7------2---4------4---4---4---6---------
 ----------------------------------------------------------
                      If you need a shoulder...  
 
 
 ---------------------------------------------------------------------
 ---------------------------------------------------------------------
 ---7---7---0---2----------------------7---2----4------4---4---4---6--
 ----------------------0---4---2---0----------------------------------
 
 -----------------------4---4---4---4---4----------------
 -------------------------------------------4h6---7------
 ---7---7---9---2----------------------------------------
 --------------------------------------------------------
 
 ----------------------------------------------------
 ----------------------------------------------------
 ---7-------------2--------4-------------------------
 ---------------------------------0---2---3----------
         No one needs the sorrow....
 
 -------------------------------------------------------------
 -------------------------------------0---1-------------------
 -------7---0---0------2------2---4-----------2---------------
 ---0---------------------------------------------4---2-------
 
 -------------------------------------------------------------
 -------------------------------------------------------------
 -------7---2---4------4---4---6------7---7---0---0---1---2---
 ---0---------------------------------------------------------
 
 ------4---4---4---4---4---4------------------------
 ---------------------------------------------------
 ------------------------------7---7-------2---4----
 --------------------------------------4------------
 
 -------------------------------------------------
 -------------------------------------------------
 ---4---4---0---------2---4---4-------------------
 ---------------3h4---------------3h4-------------
 
 ----------------------------------------------------------------
 ------------------------------------------0---1-----------------
 -----------7-----0---------2------2---4-----------2-------------
 ---0--------------------------------------------------4---2-----
      or think I, I mean you harm...  
 
 ------------------------------------------------------------
 --------------------------------------------------4---------
 -------7-------2---4------4---4---6---7---7---0-------2-----
 ---0-------4------------------------------------------------
 
 ---------------------------4--------------------------
 ------------------------------------------------------
 ---2---2---2---2---2---2----------7------2---2---4----
 ------------------------------------------------------
 
 -------------------------------------------------
 -------------------------------------------------
 ------4---4----6------7---0---2------------------
 -------------------------------------------------
 
 ------------------------------------------------------------------
 ------------------------------------------------------------------
 --------------------------7-------2---0---4------0---4---4---6----
 ---0---4---0---2------0-------4-----------------------------------
 
 ------------------------------------------------------4------
 -------------------------------------------------------------
 ---7---7---0---0---1---2------2---2---2---2---2---2----------
 -------------------------------------------------------------
 
 --------------------------------------------------------------
 --------------------------------------------------------------
 ---7---7---2---4------4---4---4---4---6---7---7---0---0---2---
 --------------------------------------------------------------
 
 ----------------------------------------------------
 --------------0---1---------------------------------
 ------2---4-----------2---------------7---2---4----
 --------------------------4---2---0-----------------
 
 -------------------------------------------------
 -------------------------------------------------
 ---4---4---4---4---6---7---7---0---0---1---2-----
 -------------------------------------------------
 
 ---------------------------4------------------
 ----------------------------------------------
 ---2---2---2---2---2---2----------------------
 ----------------------------------------------
 
 ------------------------------------------------------------------
 ------------------------------------------------------------------
 ---7---7---6---6---4------4---4---4---4---0---7---7---6---6---2---
 ------------------------------------------------------------------
      Don`t ever leave me...
 
 --------------------------------------------------------------------
 --------------------------------------------------------------------
 ---2---2---2---2---2------7---7---6---6---4------4---4---2---2---0--
 --------------------------------------------------------------------
                              All I ever wanted...  
 
 ---------------------------------------------------------------
 -------6-------------------------------------------------------
 ---------------------------------------------------------------
 ---4-------4---0-----------------------------------------------
    know that i care
 
 --------------
 --------------
 --------------
 ---0----------
 
 
 



Текст, аккорды и табулатура для песни "Rocket Queen (btab)", исполняет "Guns N Roses".
Используемые в песне аккорды можно найти в разделе Как брать аккорды. Аккорды для шестиструнной гитары. Другие песни можно найти на нашем сайте, воспользовавшись алфавитным указателем вверху страницы.


 
Ошибка в тексте? Выделите ошибку и нажмите Ctrl+Enter