Guns N Roses - Mr Brownstone
 
 tabbed for bass by Andrew Goktepe 
 
 
 Intro
 
 ---------------------------------------------------
 ---------------------------------------------------
 ----7------5------7-------------5----0----2--------
 -----------------------------------------------3---
 
 ~~~~~~~~~~~~~~~~~~~~~~~~~~~~~~~~~~~~~~~~~~~~~~~~~~~~~~~~~~~~~~~~~~
 
 ------------------------------------------------------------
 |*----------------------------------------------------------------------
 |*--------------2p0----------------------------------5---4---2----------
 |---0---3---4---------0---3---4---0---3---4---0------------------3---0--
 
 
 ------------------------------------------------------------------------
 ------------------------------------------------------------------------      
 ---------------2p0---------------------------0-------5---4---2----------       
 ---0---3---4---------0---3---4---0---3---4-----------------------3---0--
 
 
 
 Verse
 
 -------------------------------------------------
 -------------------------------------------------
 -------------------0----------0---0---0----------
 ---0---0---0---3--------------------------3---0--
 
 --------------------------------------------------|
 -------------------------------------------------*|
 -------------------0----------0---0---0----------*|
 ---0---0---0---3--------------------------3---0---|
 
 
 
 
 Chorus
 
 ---------------------------------------------------------
 -------------------------------------------1h2-----------
 ---------------1h2-------0h1---3---1---3---------3---0---
 ---3---1---3---------3-----------------------------------
 
 ----------------------------------------------------------
 ---------------3h4---------------------------------0h2----
 ---5---3---5---------5---0---5---------------0h2----------
 ---------------------------------2---3---4----------------
 
 --------------------------------------------------------------
 --------------------------------------------------------------
 ---7---7---7---7---7-------5h7-------7---7---7---7-------5h7--
 -----------------------7---------0-------------------7--------
 
 ------------------------------------------------------------------
 ------------------------------------------------------------------
 ---7---7---7---7---7-------5h7------7---5---4---2-------0---------
 -----------------------7----------------------------3-------3---0-
 
 
 ~~~~~~~~~~~~~~~~~~~~~~~~~~~~~~~~~~~~~~~~~~~~~~~~~~~~~~~~~~~~~~~~
 
 used to do a little ...
 
 -------------------------------------------------|
 |*----------------0---1-------------------------------------*|
 |*----2---0---2-----------2--------0-------0---3h4---0------*|
 ------------------3--------3-----------------0---|
                                   __________________________
 
                                                        
 2nd time around, play this at the end instead of this  /
 
 ------------------------
 ----------------2---0---
 ----0-------0-----------
 --------3---------------
 
 
 ~~~~~~~~~~~~~~~~~~~~~~~~~~~~~~~~~~~~~~~~~~~~~~~~~~~~~~~~~~~~~~~~
 
 --------------------------------------
 --------------------------------------
 ----7---5---4---2-------0-------------
 --------------------3-------3---0-----
 
 
 Guitar Solo
 
 -------------------------------------------------------
 -------------------------------------------------------
 ----------------2-----------------------0--------------
 ----2---2---2-------2-------0---0---0-------0----------
 
 -------------------------------------------------------
 ----------------2-----------------------0---0---0h2----
 ----2---2---2-------2-------0---0---0------------------
 -------------------------------------------------------
 
 --------------------------------------------------
 --------------------------------------------------
 ----------------2------------------------0--------
 ----2---2---2-------2--------0---0---0-------0----
 
 -------------------------------------------------------------------
 -------------------------------------------------------------------
 ----------------2------------7---7---7---5---5---5-----------------
 ----2---2---2-------2--------------------------------7------5---3-
 
 
 ---------------------------------------------------------
 -------------------------------------------1h2-----------
 ---------------1h2-------0h1---3---1---3---------3---1---3
 ---3---1---3---------3-----------------------------------
 
 -----------------------------------------------
 ---------------3h4---------------------0---5--
 ---5---3---5---------5-----5---4---2-----------
 -----------------------------------------------
 
 
 ----------------------------------------------
 ----------------------------------------------
 ----------------------------------------------
 ----------------------------------------3----
 
 ----------------------------------------------------------------------
 ----------------------------------------------------------------------
 --------------2p0----------------------------------5---4---2----------
 --0---3---4---------0---3---4---0---3---4---0------------------3---0--
 
 
 ------------------------------------------------------------------------
 ------------------------------------------------------------------------      
 ---------------2p0---------------------------0-------5---4---2----------       
 ---0---3---4---------0---3---4---0---3---4-----------------------3---0--
 
 
 
 ----------------------------------------|
 |*-------------------------------------------------*|
 |*-------------------0----------0---0---0----------*|
 |----0---0---0---3--------------------------3---0---|
 
 
 ------------------------------------
 ------------------------------------
 ----7---5---4---2-------0-----------
 --------------------3-------3---0---
 
 
 ---------------------------------------------------------------|
 |*------------------------------------------------------------------------*|      
 |*---------------2p0---------------------------0-------5---4---2----------*|       
 |----0---3---4---------0---3---4---0---3---4-----------------------3---0---|
 
 
 
 ~~~~~~~~~~~~~~~~~~~~~~~~~~~~~~~~~~~~~~~~~~~~~~~~~~~~~~~~~~~~~~~~~~~
 
 
 stuck it in the middle...
 
 ---------------------------------------------------------------------------
 ---------------------------------------------------------------------------
 ------------------------------------------------------------------------0--
 ----0--------------------0---------------------0-------------------3-------
 
 
 -------------------------------------
 -------------------------------------
 ----0--------------------0-----------
 -------------------------------------
 
 ------7p6p4---2---0----------------------
 ----------------------2p0----------------
 ----------------------------2p0----------
 ----------------------------------3---0--
 
 -----------------------------------------------------------------------
 -----------------------------------------------------------------------
 -----------------------------------------------------------------------
 ----(0)----------------------(0)-----------------------(0)-------------
 
 
 
 



Текст, аккорды и табулатура для песни "Mr. Brownstone (btab)", исполняет "Guns N Roses".
Используемые в песне аккорды можно найти в разделе Как брать аккорды. Аккорды для шестиструнной гитары. Другие песни можно найти на нашем сайте, воспользовавшись алфавитным указателем вверху страницы.


 
Ошибка в тексте? Выделите ошибку и нажмите Ctrl+Enter