E-----|----------|-0-----|-------0-------------| 
 B-----|----------|-0---------------| 
 G-----|----------|-------|-2fb-----2--r--0-----| 
 D|-2-0------------|------------2-0-| 
 A|-----2-0--------|-2--------------| 
 E|---------3fb----|-0--------------| 
 
 E----------------------| 
 B----------------------| 
 G----------------------| 
 D|-(0)h2------0---|--2s4-4-4s5-5-5s7-|-7-7s9-9-9s12-12h14--| 
 A----------------------| 
 E----------------------| 
 
 E----------| 
 B|-----|-12-14--14hb---14hb-|-14hb----|-14hb---------------| 
 G|-----|-12-14--14hb---14hb-|-14hb----|-14hb--12-----------| 
 D|-14-----------|---------|----------14---14p0-| 
 A----------| 
 E----------| 
 
 E--------------|------15----17-15--|-17fb---r--| 
 B-----------15-|-17----------------| 
 G|-------12-14-14s16-16------------| 
 D|-12-14---------------------------| 
 A----------------------| 
 E----------------------| 
 
 E|-17fb--r-|-17fbr-17fbr-17fbr--17fbr-17fbr-17fbr-|-(17)fb-| 
 B-------------------------|--------| 
 G-------------------------|--------| 
 D-------------------------|--------| 
 A-------------------------|--------| 
 E-------------------------|--------| 
 
 Notation: 
 fb = full bend 
 hb = half bend 
 p  = pull-off 
 h  = hammer-on 
 s  = slide 
 r  = release bend 
 
 ----Zappp-------  



Текст, аккорды и табулатура для песни "Back Off Bitch (tab)", исполняет "Guns N Roses".
Используемые в песне аккорды можно найти в разделе Как брать аккорды. Аккорды для шестиструнной гитары. Другие песни можно найти на нашем сайте, воспользовавшись алфавитным указателем вверху страницы.


 
Ошибка в тексте? Выделите ошибку и нажмите Ctrl+Enter