---
E----------------|
B----------------|
G----------------|
D---|--9----------4--4-4--5--|
A---|--7----2-----2--2-2--3--|
E---|-------0----------------|

--------------------------------------------------|
--------------------------------------------------|
--------------------------------------------------|
--5----5-----7--7-7--9--|--9----------4--4-4--5--|--5----5-----7--7-7--9--|
--3----3-----5--5-5--7--|--7----2-----2--2-2--3--|--3----3-----5--5-5--7--|
------------------------|-------0-----------------------------|

--------------------------------------------------|
--------------------------------------------------|
--------------------------------------------------|
--9----------4--4-4--5--|--5----5-----7--7-7--9--|--9----------4--4-4--5--|
--7----2-----2--2-2--3--|--3----3-----5--5-5--7--|--7----2-----2--2-2--3--|
-------0-----------------------------|-------0----------------|

---------------------------------------|
---------------------------------------|
---------------------------------------|
--5----5-----7--7-7--9--|--2-----------------------|
--3----3-----5--5-5--7--|--2-----------------------|
------------------------|--0-----------------------|

--------------------------------------|
--------------------------x-x-x-x-x-x-|
--------------------------x-x-x-x-x-x-|
--------------------------x-x-x-x-x-x-|
--------------------------------------|
--------------------------------------|

------------------------------------------------|
------------x-x-x-x-x-x--x-x-x-x-x-x--8-8---8-8-|
------------x-x-x-x-x-x--x-x-x-x-x-x--7-7---7-7-|
------------x-x-x-x-x-x--x-x-x-x-x-x--5-5---5-5-|
--------------------------------------5-5---5-5-|
------------------------------------------------|

--------------------------------------------------|
------------x-x-x-x-x-x--x-x-x-x-x-x--x-x-x-x-x-x-|
------------x-x-x-x-x-x--x-x-x-x-x-x--x-x-x-x-x-x-|
------------x-x-x-x-x-x--x-x-x-x-x-x--x-x-x-x-x-x-|
--------------------------------------------------|
--------------------------------------------------|

------------------------------------------------|
------------8-8---8-8--x-x-x-x-x-x--x-x-x-x-x-x-|
------------7-7---7-7--x-x-x-x-x-x--x-x-x-x-x-x-|
------------5-5---5-5--x-x-x-x-x-x--x-x-x-x-x-x-|
------------5-5---5-5---------------------------|
------------------------------------------------|

------------------------------------------------|
------------x-x-x-x-x-x--8-8---8-8--x-x-x-x-x-x-|
------------x-x-x-x-x-x--7-7---7-7--x-x-x-x-x-x-|
------------x-x-x-x-x-x--5-5---5-5--x-x-x-x-x-x-|
-------------------------5-5---5-5--------------|
------------------------------------------------|

----------------------------------------------|
------------x-x-x-x-x-x--x-x-x-x-x-x----------|
------------x-x-x-x-x-x--x-x-x-x-x-x----------|
------------x-x-x-x-x-x--x-x-x-x-x-x-|----------5---------|
-------------------------------------|----------3----4----|
-----------------------------------------2----|

--------------------------------------------------|
--------------------------------------------------|
--------------------------------------------------|
-------------4--4-4--5--|--5----5-----7--7-7--9--|--9----------4--4-4--5--|
--2----2-----2--2-2--3--|--3----3-----5--5-5--7--|--7----2-----2--2-2--3--|
--0----0-----------------------------|-------0----------------|

--------------------------------------------------|
--------------------------------------------------|
--------------------------------------------------|
--5----5-----7--7-7--9--|--9----------4--4-4--5--|--5----5-----7--7-7--9--|
--3----3-----5--5-5--7--|--7----2-----2--2-2--3--|--3----3-----5--5-5--7--|
------------------------|-------0-----------------------------|

---------------------------------------------|
---------------------------------------------|
---------------------------------------------|
--9----------4--4-4--5--|--5----5-----7--7-7--9--|--2----------------|
--7----2-----2--2-2--3--|--3----3-----5--5-5--7--|--2----------------|
-------0-----------------------------|--0----------------|

--------------------------------------------------|
------------x-x-x-x-x-x--x-x-x-x-x-x--x-x-x-x-x-x-|
------------x-x-x-x-x-x--x-x-x-x-x-x--x-x-x-x-x-x-|
------------x-x-x-x-x-x--x-x-x-x-x-x--x-x-x-x-x-x-|
--------------------------------------------------|
--------------------------------------------------|

------------------------------------------------|
------------8-8---8-8--x-x-x-x-x-x--x-x-x-x-x-x-|
------------7-7---7-7--x-x-x-x-x-x--x-x-x-x-x-x-|
------------5-5---5-5--x-x-x-x-x-x--x-x-x-x-x-x-|
------------5-5---5-5---------------------------|
------------------------------------------------|

------------------------------------------------|
------------x-x-x-x-x-x--8-8---8-8--x-x-x-x-x-x-|
------------x-x-x-x-x-x--7-7---7-7--x-x-x-x-x-x-|
------------x-x-x-x-x-x--5-5---5-5--x-x-x-x-x-x-|
-------------------------5-5---5-5--------------|
------------------------------------------------|

------------------------------------------------|
------------x-x-x-x-x-x--x-x-x-x-x-x--8-8---8-8-|
------------x-x-x-x-x-x--x-x-x-x-x-x--7-7---7-7-|
------------x-x-x-x-x-x--x-x-x-x-x-x--5-5---5-5-|
--------------------------------------5-5---5-5-|
------------------------------------------------|

--------------------------------------------------|
------------x-x-x-x-x-x--x-x-x-x-x-x--x-x-x-x-x-x-|
------------x-x-x-x-x-x--x-x-x-x-x-x--x-x-x-x-x-x-|
------------x-x-x-x-x-x--x-x-x-x-x-x--x-x-x-x-x-x-|
--------------------------------------------------|
--------------------------------------------------|

----------------------------------------------|
----------------------------------------------|
----------------------------------------------|
----------5-----------4--4-4--5--|--5----5-----7--7-7--9--|
----------3----4----|--2----2-----2--2-2--3--|--3----3-----5--5-5--7--|
---------------2----|--0----0-----------------------------|

--------------------------------------------------|
--------------------------------------------------|
--------------------------------------------------|
--9----------4--4-4--5--|--5----5-----7--7-7--9--|--9----------4--4-4--5--|
--7----2-----2--2-2--3--|--3----3-----5--5-5--7--|--7----2-----2--2-2--3--|
-------0-----------------------------|-------0----------------|

--------------------------------------------------|
--------------------------------------------------|
--------------------------------------------------|
--5----5-----7--7-7--9--|--9----------4--4-4--5--|--5----5-----7--7-7--9--|
--3----3-----5--5-5--7--|--7----2-----2--2-2--3--|--3----3-----5--5-5--7--|
------------------------|-------0-----------------------------|

------------------------------------------------|
------------------------------------------------|
------------------------------------------------|
------------------------------------------------|
--2--2----2--2----2--2--|----2--2----2--2----2--|--2----2--2----2--2----|
--0--0----0--0----0--0--|----0--0----0--0----0--|--0----0--0----0--0----|

------------------------------------------------|
------------------------------------------------|
------------------------------------------------|
------------------------------------------------|
--2--2----2--2----2--2--|----2--2----2--2----2--|--2----2--2----2--2----|
--0--0----0--0----0--0--|----0--0----0--0----0--|--0----0--0----0--0----|

-------------------------------------------------|
-------------------------------------------------|
-------------------------------------------------|
--------------------------5-----------4--4-4--5--|
--2--2----2--2----2--2--|----2--2--2--3----4----|--2----2-----2--2-2--3--|
--0--0----0--0----0--0--|----0--0--0-------2----|--0----0----------------|

--------------------------------------------------|
--------------------------------------------------|
--------------------------------------------------|
--5----5-----7--7-7--9--|--9----------4--4-4--5--|--5----5-----7--7-7--9--|
--3----3-----5--5-5--7--|--7----2-----2--2-2--3--|--3----3-----5--5-5--7--|
------------------------|-------0-----------------------------|

--------------------------------------------------|
--------------------------------------------------|
--------------------------------------------------|
--9----------4--4-4--5--|--5----5-----7--7-7--9--|--9----------4--4-4--5--|
--7----2-----2--2-2--3--|--3----3-----5--5-5--7--|--7----2-----2--2-2--3--|
-------0-----------------------------|-------0----------------|

--------------------------------------------------|
--------------------------------------------------|
--------------------------------------------------|
--5----5-----7--7-7--9----4--4-4--5--|--5----5-----7--7-7--9--|
--3----3-----5--5-5--7--|--2----2-----2--2-2--3--|--3----3-----5--5-5--7--|
------------------------|--0----0-----------------------------|

--------------------------------------------------|
--------------------------------------------------|
--------------------------------------------------|
--9----------4--4-4--5--|--5----5-----7--7-7--9--|--9----------4--4-4--5--|
--7----2-----2--2-2--3--|--3----3-----5--5-5--7--|--7----2-----2--2-2--3--|
-------0-----------------------------|-------0----------------|


                                                                           
--------------------------------------------------|
--------------------------------------------------|
--------------------------------------------------|
--5----5-----7--7-7--9--|--9----------4--4-4--5--|--5----5-----7--7-7--9--|
--3----3-----5--5-5--7--|--7----2-----2--2-2--3--|--3----3-----5--5-5--7--|
------------------------|-------0-----------------------------|

------------------------||
------------------------||
------------------------||
--2--2----2--2----2--2--||
--2--2----2--2----2--2--||
--0--0----0--0----0--0--||


Текст, аккорды и табулатура для песни "Open Your Eyes", исполняет "Guano Apes".
Используемые в песне аккорды можно найти в разделе Как брать аккорды. Аккорды для шестиструнной гитары. Другие песни можно найти на нашем сайте, воспользовавшись алфавитным указателем вверху страницы.


 
Ошибка в тексте? Выделите ошибку и нажмите Ctrl+Enter