ARTIST: Guano Apes
SONG: Lord Of The Boards.
TUNING: E A D G

This basstab is intended for non-commercial purposes and is my own 
interpretation of the song.
You may do with it what you want on the following two conditions:
- Do not use it for commercial purposes (already said that, but still)
- If you wish to modify it, keep my name included. Tabbing is very 
time-consuming and
there is nothing worse than to see your own work somewhere at another site
with somebody else his name put on it in stead of yours.
Be my guest to ADD your name (even if you only submit the tab to another 
site - I don't mind),
but keep mine in. That's all I ask, and it keeps me motivated to continue 
tabbing songs.


Tabbed by: Mark Workum , The Netherlands.
h = hammer on (you can leave it out, but it's easier to play with)

Intro. When guitars come, play:
G--------------|
D--------------|
A--------------|
E0-3----0-2----|


and immediately continue with:


CHORUS
G------------------------------------------------------------------------------------|
D------------------------------------------------------------------------------------|
A------------------------------------------------------------------------------------|
E2--0--h2----2--0--h2--0--h2--0--h2--0--h2--0--2--0--h2----2--0--h2--0--h2--0--h2-3--|

G------------------------------------------------------------------------------------|
D------------------------------------------------------------------------------------|
A------------------------------------------------------------------------------------|
E2--0--h2----2--0--h2--0--h2--0--h2--0--h2--0--2--0--h2----2--0--0-3----0-2----------|
								play whole chorus twice
END CHORUS


PRE-VERSE
G------------------------------------------------------------------------------------|
D------------------------------------------------------------------------------------|
A---------6-6-7--7----6---------------6-6-7--7----6---------------6-6-7--7----6------|
E4---------------------------4---------------------------4---------------------------|

G----------------------------|
D----------------------------|
A---------6---7-------6------|
E4---------------------------|
END PRE-VERSE


VERSE (I've got the snowboard under my feet...)
G----------------------------|
D----------------------------|
A---------6-6-7--7----6------|	PLAY 8 TIMES
E4---------------------------|
END VERSE


PRE-CHORUS (And now I'm flying...)
G----------------------------------------|
D----------------------------------------|
A2----2----2----2----2----2----0----0----|	PLAY 4 TIMES
E----------------------------------------|

G----------------------------------------|
D0----0----0----0----0----0--------------|
A------------------------------0----0----|	PLAY 2 TIMES
E----------------------------------------|

G-------------------------------------------------|
D-------------------------------------------------|
A2----2----2----2----2----2----0----0----2--------|
E-------------------------------------------------|
END PRE-CHORUS


- PLAY CHORUS -

- PLAY PRE-VERSE -

- PLAY VERSE - (I can stay behind him...)

- PLAY PRE-CHORUS -

G--------------|
D--------------|
A--------------|
E0-3----0-2----|

- PLAY CHORUS -

(Lords of the BOARDS!!!)
G----------------------------------------|
D----------------------------------------|
A----------------------------------------|
E2--0--h2--------------------------------|		PLAY 3 TIMES

G----------------------------------------|
D----------------------------------------|
A---------------0--------2-----3---------|
E2--0--h2----0--------0-----0------------|

G----------------------------------------|
D----------------------------------------|
A----------------------------------------|
E2--0--h2--------------------------------|		PLAY 4 TIMES

G--------------|
D--------------|
A--------------|
E0-3----0-2----|

- PLAY CHORUS -

wait... and then play:

G---------------------------------------------------------|
D---------------------------------------------------------|
A---------------------------------------------------------|
E2----2--------0--3h-3--3--3-0--2--------0--3h-3--3--3-0--|

						repeat and fade...


Текст, аккорды и табулатура для песни "Lords Of The Boards", исполняет "Guano Apes".
Используемые в песне аккорды можно найти в разделе Как брать аккорды. Аккорды для шестиструнной гитары. Другие песни можно найти на нашем сайте, воспользовавшись алфавитным указателем вверху страницы.


 
Ошибка в тексте? Выделите ошибку и нажмите Ctrl+Enter