Song Title: Snap Your Fingers, Snap Your Neck
Band: Grinspoon
Tabber: Todd Ford ([email protected])
Tuning: Dropped D Tuning


Intro
|-------------------|
|-------------------|
|-------------------|
|--11-0--1--1-000---|


Bridge
|------------------|
|------------------|
|--------------5---|
|--00-30-50-6-0----|


Chorus
|--------------------|
|--------------------|
|--3-33--666--5-555--|
|--------------------|



Текст, аккорды и табулатура для песни "Snap Your Fingers Snap Your Neck", исполняет "Grinspoon".
Используемые в песне аккорды можно найти в разделе Как брать аккорды. Аккорды для шестиструнной гитары. Другие песни можно найти на нашем сайте, воспользовавшись алфавитным указателем вверху страницы.


 
Ошибка в тексте? Выделите ошибку и нажмите Ctrl+Enter