Artist: Grinspoon
Song: No Reason

Here is my tabbing of this song which i think is the best of all Grinspoons songs.
Im pretty sure there are 2 guitars in this song, so ive tabbed both of them.
The timing for guitar 2 in this tab isnt in time with guitar 1 so u have to
listen to the song

h = hammer on
b = bend
br = bend & release
PM... = Palm Mute
*** = Pick Slide.
6/8 = slide up
~ = let ring
/? = slide down to no where
 Intro

 Guitar 1
e|------------------------------|
B|------------------------------|
G|-----6-6---8-8--8b--8b--8-6---|
D|------------------------------|
A|------------------------------|
E|------------------------------|

 Guitar 2
e|-----------------------------------|
B|-----------------------------------|
G|-----------------------------------|
D|-----------------------------------|
A|-----4-4---------------------------|
E|-----------4-4--5-5--2--0-2-0------|

 Verse Pt 1
 
 Guitar 1
e|---0---------4-x-x--4----4-x-----5------|
B|-----0-------4-x-x--4h5--5-x-------5----|
G|-------------5-x-x--4h6--6-x------------|
D|---------6-6-6-x-x--4h6--6-x--7---------|
A|---------6-6-6-x-x--4----4-x--7---------|
E|---------4-4-4-x-x---------x--5---------|
         PM...

 Guitar 2
e|----------------|
B|----------------|
G|----------------|
D|----------------|
A|----------------|
E|-0-0--2-3-4-----|



 Verse Pt 2
e|----------x-x--------4--x-x--4----4-x----5--------|
B|----------x-x--------4--x-x--4h5--5-x------5------|
G|-------1--x-x--------5--x-x--4h6--6-x-------------|
D|-2-2---2--x-x--6-6---6--x-x--4h6--6-x-7-----------|
A|-2-2---2--x-x--6-6---6--x-x--4----4-x-7-----------|
E|-0-0---0--x-x--4-4---4--x-x---------x-5-----------|
PM ...           ...

 

 Verse Pt 3

 Guitar 1
e|------------------------------------|
B|------------------------------------|
G|-------------------7-7-7-7----------|
D|-2-2-2-2--6-6-6-6--7-7-7-7--***-----|
A|-2-2-2-2--6-6-6-6--4-4-4-4--***-----|
E|-0-0-0-0--4-4-4-4-----------***-----|

 Guitar 2
e|----------------|
B|----------------|
G|----------------|
D|----------------|
A|----------------|
E|-0-0--2-3-4-----|



 Chorus Pt 1 - Play Intro



 Chorus Fill
e|----------------------------------------|
B|----------------------------------------|
G|-6-6-6-6-6-6-6-6/8-8-8-8-8-8-8-8--------|
D|-x-x-x-x-x-x-x-x/x-x-x-x-x-x-x-x--------|
A|-4-4-4-4-4-4-4-4/6-6-6-6-6-6-6-6--------|
E|----------------------------------------|

 

 Chorus Pt 2
e|---------------------------------------|
B|---------------------------------------|
G|------------------6--66----------------|
D|-2-2--2---6-6--6--6--66----7---7-7-----|
A|-2-2--2---6-6--6--4--44----7---7-7-----|
E|-0-0--0---4-4--4-----------5---5-5-----|

 

 Solo

 Guitar 2
e|-----12--------------------------------12------------------------------------------|
B|--12----12---12-16-12---12-14-12-~--12----12---12-16-12---12-14-12-----------------|
G|-----------------------------------------------------------------------------------|
D|--------------------------------------------------------------------14-14-14-------|
A|-----------------------------------------------------------------------------------|
E|-----------------------------------------------------------------------------------| 
                                    ^                                  ^
                                This is where the other guitar plays the 5-- thing    
                                                                         --5

e|-----12--------------------------------12------------------------------------------|
B|--12----12---12-16-12---12-14-12-~--12----12---12-16-12---12-14-12-----------------|
G|-----------------------------------------------------------------------------------|
D|--------------------------------------------------------------------14-14-~-?-----|
A|-----------------------------------------------------------------------------------|
E|-----------------------------------------------------------------------------------| 
                                    ^                                  ^
                                This is where the other guitar plays the 5-- thing    
                                                                         --5

 Guitar 1
e|----------x-x--------4--x-x--4----4-x----5--------|
B|----------x-x--------4--x-x--4h5--5-x------5------|
G|-------1--x-x--------5--x-x--4h6--6-x-------------|
D|-2-2---2--x-x--6-6---6--x-x--4h6--6-x-7-----------|
A|-2-2---2--x-x--6-6---6--x-x--4----4-x-7-----------|
E|-0-0---0--x-x--4-4---4--x-x---------x-5-----------|
PM ...           ...

 

 Verse Pt 4
e|----------------------------------------|
B|----------------------------------------|
G|-------------6--------------------------|
D|-2-----6-----6----7---------------------|
A|-2-----6-----4----7---------------------|
E|-0-----4----------5---------------------|



 Outro

 Guitar 1
e|------------------------------|
B|------------------------------|
G|-----6-6---8-8--8br-6-~-------|
D|------------------------------|
A|------------------------------|
E|------------------------------|

 Guitar 2
e|-----------------------------------|
B|-----------------------------------|
G|-----------------------------------|
D|-----------------------------------|
A|-----4-4---------------------------|
E|-----------4-4--5-5-x-2-~----------|

Intro       x 4
Verse Pt 1  x 2
Verse Pt 2  x 3
Verse Pt 3  x 1
Chorus Pt 1 x 3
Chorus Fill x 1
Verse Pt 1  x 2
Verse Pt 2  x 3
Verse Pt 3  x 1
Chorus Pt 1 x 3
Chorus Fill x 1
Chorus Pt 3 x 4
Solo        x 2
Verse Pt 2  x 2
Verse Pt 4  x 1
Chorus Pt 2 x 5
Intro       x 3
Outro       x 1


Текст, аккорды и табулатура для песни "No Reason", исполняет "Grinspoon".
Используемые в песне аккорды можно найти в разделе Как брать аккорды. Аккорды для шестиструнной гитары. Другие песни можно найти на нашем сайте, воспользовавшись алфавитным указателем вверху страницы.


 
Ошибка в тексте? Выделите ошибку и нажмите Ctrl+Enter