SONG: Lost Control
ARTIST: Grinspoon
ALBUM: New Detention (2002)
TAB: Mikey ([email protected])

TUNING: Drop-D (D-A-D-G-B-E)


INTRO (Feedback from plugging in guitar)
E |-------------------------------------------------|
B |-------------------------------------------------|
G |o--------------------------------------------o|
D |o--------------------------------------------o|
A |-------------------------5-4-3-0-3-4-5--------|
D |------0-0-0-0-0-0-0-0-0--5-4-3-0-3-4-5-----------|
      PM ^ ^ ^ ^ ^ ^ ^ ^ ^                 harm.
    (play x 4)


VERSE
E |----------------------------------------------------------------------|
B |----------------------------------------------------------------------|
G |----------------------------------------------------------------------|
D |----------------------------------------------------------------------|
A |------0--(0)h3----------------------0--(0)h3--------------------------|
D |------0--(0)h3----------------------0--(0)h3--------------------------|

E |----------------------------------------------------------------------|
B |----------------------------------------------------------------------|
G |----------------------------------------------------------------------|
D |----------------------------------------------------------------------|
A |------0--(0)h3----------------------0--(0)h3---0-5-4-3-0-0-3-4-5------|
D |------0--(0)h3----------------------0--(0)h3---0-5-4-3-0-0-3-4-5------|

E |----------------------------------------------------------------------|
B |----------------------------------------------------------------------|
G |----------------------------------------------------------------------|
D |----------------------------------------------------------------------|
A |------0--(0)h3----------------------0--(0)h3--------------------------|
D |------0--(0)h3----------------------0--(0)h3--------------------------|

E |----------------------------------------------------------------------|
B |----------------------------------------------------------------------|
G |----------------------------------------------------------------------|
D |----------------------------------------------------------------------|
A |------0--(0)h3----------------------0--(0)h3^--0-5-4-3-0-0-3-4-5------|
D |------0--(0)h3----------------------0--(0)h3^--0-5-4-3-0-0-3-4-5------|
                                               gradual bend



CHORUS
E |---------------------------------------------------------------------------------------------------|
B |---------------------------------------------------------------------------------------------------|
G |--------------------------------------------7-7-7----------------------------------------7-7-7-----|
D |-----------7-----------------5---5-5-5-----5-5-5-------7-----------------5---5-5-5-----5-5-5-----|
A |------0----5----0-3---3-3-3--3---3-3-3-5---5-5-5--0----5----0-3---3-3-3--3---3-3-3-5---5-5-5-----|
D |------0----------0-3---3-3-3------------5---5-5-5--0----------0-3---3-3-3------------5---5-5-5-----|
  (w/ Lead Fill 1)

E |-----------------------------------------------------------------------------------------------------------------------|
B |-----------------------------------------------------------------------------------------------------------------------|
G |--------------------------------------------7-7-7--10101010101010101010101010101010-5-5-5-5-5-5-5-5--------------------|
D |-----------7-----------------5---5-5-5-----5-5-5--10101010101010101010101010101010-5-5-5-5-5-5-5-5-5-5-5-5-5-5-5-5----|
A |------0----5----0-3---3-3-3--3---3-3-3-5---5-5-5---8-8-8-8-8-8-8-8-8-8-8-8-8-8-8-8-3-3-3-3-3-3-3-3-5-5-5-5-5-5-5-5----|
D |------0----------0-3---3-3-3------------5---5-5-5---------------------------------------------------5-5-5-5-5-5-5-5----|
                                                      (w/ Lead Fill 2)


(Lead Fill 1)
E |---------------------------------------------------------------------------------------------------|
B |---------------------------------------------------------------------------------------------------|
G |--------------------------------------------7-7-7------------------101010-10/12--12-12-----7-7-7--|
D |-----------7-----------------5---5-5-5-----5-5-5-------7------------------------------5---5-5-5--|
A |------0----5----0-3---3-3-3--3---3-3-3-5---5-5-5--0----5----0-3---8-8-8--8/10--10-10-5---5-5-5--|
D |------0----------0-3---3-3-3------------5---5-5-5--0----------0-3-----------------------5---5-5-5--|

(Lead Fill 2)
E |-------------------------------------------------------------------------------------------------------------|
B |-------------------------------------------------------------------------------------------------------------|
G |-----10101010101010101010101010101010/12-12-12-12-12-12-12-12-12^(14)-(14)-(14)-(14)-(14)-(14)-(14)-(14)-----|
D |-----10101010101010101010101010101010------------------------------------------------------------------------|
A |------8-8-8-8-8-8-8-8-8-8-8-8-8-8-8-8------------------------------------------------------------------------|
D |-------------------------------------------------------------------------------------------------------------|
                                                                   (hold bend & keep playing bent note)


POST-CHORUS
E |-------------------------------------------------|
B |-------------------------------------------------|
G |o--------------------------------------------o|
D |o--------------------------------------------o|
A |-------------------------5-4-3-0-3-4-5--------|
D |------0-0-0-0-0-0-0-0-0--5-4-3-0-3-4-5-----------|
      PM ^ ^ ^ ^ ^ ^ ^ ^ ^                 harm.
    (play x 4)



    repeat VERSE
    repeat CHORUS



BRIDGE (has a 2nd guitar part, which is basically just feedback & harmonics)
E |--------------------------------------------------------------------------|
B |--------------------------------------------------------------------------|
G |--------------------------------------------------------------------------|
D |-------------------------------5-6-7-------------------5/7---5/7-5/7------|
A |-------------------------------------------------------3/5---3/5-3/5------|
D |-----0-0-0-0-0-0-0-0-0-0-0-0-0-------0-0-0-0-0-0-0-0-0-----0--------------|

E |--------------------------------------------------------------------------|
B |--------------------------------------------------------------------------|
G |--------------------------------------------------------------------------|
D |-------------------------------5-6-7-------------------5/7---5/7-5/7------|
A |-------------------------------------------------------3/5---3/5-3/5------|
D |-----0-0-0-0-0-0-0-0-0-0-0-0-0-------0-0-0-0-0-0-0-0-0-----0--------------|
     PM ^ ^ ^ ^ ^ ^ ^ ^ ^ ^ ^ ^ ^       ^ ^ ^ ^ ^ ^ ^ ^ ^     ^

E |--------------------------------------------------------------------------|
B |--------------------------------------------------------------------------|
G |o------------------------------------------------------------------------o|
D |o------------------------------5-6-7-------------------5/7---5/7-5/7-----o|
A |-------------------------------------------------------3/5---3/5-3/5------|
D |-----0-0-0-0-0-0-0-0-0-0-0-0-0-------0-0-0-0-0-0-0-0-0-----0--------------|
    (play x 2)



    repeat VERSE
    repeat CHORUS


OUTRO
E |-------------------------------------------------|
B |-------------------------------------------------|
G |o--------------------------------------------o|
D |o--------------------------------------------o|
A |-------------------------5-4-3-0-3-4-5--------|
D |------0-0-0-0-0-0-0-0-0--5-4-3-0-3-4-5-----------|
      PM ^ ^ ^ ^ ^ ^ ^ ^ ^                 harm.
    (play x 3)

E |-------------------------------------------------|
B |-------------------------------------------------|
G |-------------------------------------------------|
D |-------------------------------------------------|
A |-------------------------5-4-3-0-3-4-5---0-------|
D |------0-0-0-0-0-0-0-0-0--5-4-3-0-3-4-5---0-------|
      PM ^ ^ ^ ^ ^ ^ ^ ^ ^


Текст, аккорды и табулатура для песни "Lost Control", исполняет "Grinspoon".
Используемые в песне аккорды можно найти в разделе Как брать аккорды. Аккорды для шестиструнной гитары. Другие песни можно найти на нашем сайте, воспользовавшись алфавитным указателем вверху страницы.


 
Ошибка в тексте? Выделите ошибку и нажмите Ctrl+Enter