Grinspoon - Chemical Heart

Tabbed By Stephen Pang ([email protected])

Verse (Guitar plays first verse alone)
G|----------------|
D|----------------|
A|-5--5--3--7-8---|
E|----------------|

Chorus
G|------------------------|-------------------|
D|------------------------|-------------------|
A|-5--3-3-5--3-5-3-5--3---|---------3-5-3-5---|
E|----------------------3-|-1--1-3------------|

After Chorus
G|--------------|
D|--------------|
A|-5--5--5--5---|
E|--------------|

2nd/3rd Chorus
G|-------------------------|-------------------|
D|-----------3-----3/5-3---|-------------------|
A|-5--3-3-5----5-3---------|---------3-5-3-5---|
E|-----------------------3-|-1--1-3------------|

After 2nd Chorus
G|----------------------------|-----------------------------|
D|-3--3-3-3-3-3--3-3-3-3h5-3--|-2--2-2-2-2-2--2-2-2-2h3-2---|
A|----------------------------|-----------------------------|
E|----------------------------|-----------------------------|

Bridge
G|-----------------|--------------------|
D|-----------------|--------------------|
A|-5-5-5/7-4--4--4-|-3-3-3/5-2--2--/8-7-|
E|-----------------|--------------------|

Bridge End
G|----------------------------|-------------------------|
D|-3--3-3-3-3-3--3-3-3-3h5-3--|-2--2-2-2-2-2--2-2-2-----|
A|----------------------------|---------------------3---|
E|----------------------------|-------------------------|

Last Verse
G|--------------|
D|--------------|
A|-5--5--5--5---|
E|--------------|

Last Chorus
G|-----------------------------|-------------------|
D|----3---3-3/5--3---3-----5-3-|-------------------|
A|-5----5----------5---5-3-----|---------3-5-3-5---|
E|-----------------------------|-1--1-3------------|

G|-----------------------------|-------------------|
D|---3---3--3/5--3---3-----5-3-|-------------------|
A|-5---5-----------5---5-3-----|---------3-5-3-5---|
E|-----------------------------|-1--1-3------------|

G|-----------------------------|-------------------|
D|----------3/5--3---3-----5-3-|-------------------|
A|-5--3-5-3--------5---5-3-----|---------3-5-3-5---|
E|-----------------------------|-1--1-3------------|

G|---------------------------|-------------------|
D|---3---3--3/7--5-3-5-3-----|-------------------|
A|-5---5-----------------5-3-|---------3-5-3-5---|
E|---------------------------|-1--1-3------------|

Ending
G|---------------------------|-----------------------|------|
D|-3h5-3h5-3h5-3--3-3-3h5-3--|-2h3-2h3-2h3-2--2-2-2--|------|
A|---------------------------|-----------------------|-/5---|
E|---------------------------|-----------------------|------|


Текст, аккорды и табулатура для песни "Chemical Heart", исполняет "Grinspoon".
Используемые в песне аккорды можно найти в разделе Как брать аккорды. Аккорды для шестиструнной гитары. Другие песни можно найти на нашем сайте, воспользовавшись алфавитным указателем вверху страницы.


 
Ошибка в тексте? Выделите ошибку и нажмите Ctrl+Enter