Artist: Grinspoon
Title: Anyday Anyhow

Transcribed by James Hall [email protected]

b: Bend
h: Hammer on
PM... :Palm Mute
/ Slide

Drop D Tuning

Verse
E|-------------------------------------------------|
B|-------------------------------------------------|
G|-------------------------------------------------|
D|-------0-0-0---0-0-0-0---------------------------|
A|-3h4h5-0-0-0---0-0-0-0---------------------------|
D|-3h4h5-0-0-0---0-0-0-0---------------------------|

Pre Chorus (Guitar 1)
E|-------------------------------------------------|
B|-------------------------------------------------|
G|-------------------------------------------------|
D|-----0--0-0-0------------------------------------|
A|-3h4-0--0-0-0------------------------------------|
D|-3h4-0--0-0-0------------------------------------|

Pre Chorus (Guitar 2)

  PM...............................................
E|-------------------------------------------------|
B|-------------------------------------------------|
G|-------------------------------------------------|
D|-------------------------------------------------|
A|-0-0-0-0-0-0-0-0-0-0-0-0-0-0-0-0-0-0-0-0-0-0-0-0-|
D|-0-0-0-0-0-0-0-0-0-0-0-0-0-0-0-0-0-0-0-0-0-0-0-0-|

Chorus

   Say. what   You want to belong, to.  Anytime
E|-2---------|-0-------------------2--|-0---------------|
B|-3---------|-1-------------------3--|-1---------------|
G|-2---------|-0-------------------2--|-0---------------|
D|-0---------|-2-------------------0--|-2---------------|
A|-0---------|-3-------------------0--|-3---------------|
D|-0---------|---------------------0--|-----------------|

  PM...............................
E|-------------------------------------------------|
B|-------------------------------------------------|
G|-4-4-4-4-4-4-4-4--5-5-5-5-5-5-5-5----------------|
D|-4-4-4-4-4-4-4-4--5-5-5-5-5-5-5-5----------------|
A|-2-2-2-2-2-2-2-2--3-3-3-3-3-3-3-3----------------|
D|-------------------------------------------------|

Part After First Chorus

Guitar 1 

(Up Strokes)
E|-------------------------------------------------|
B|-------------------------------------------------|
G|-------------------------------------------------|
D|-0-0-0-0-0-0-0-0-0-0-0-0-0-0-0-------------------|
A|-0-0-0-0-0-0-0-0-0-0-0-0-0-0-0-------------------|
D|-0-0-0-0-0-0-0-0-0-0-0-0-0-0-0-------------------|

Guitar 2
E|-------------------------------------------------|
B|-------------------------------------------------|
G|-17-17-17-17-17-17-17-17-17-17-17-17-17-17-------|
D|-------------------------------------------------|
A|-------------------------------------------------|
D|-------------------------------------------------|

E|-------------------------------------------------|
B|-------------------------------------------------|
G|-16-16-16-16-16-16-16-15-15-15-15-15-15-15-15/---|
D|-------------------------------------------------|
A|-------------------------------------------------|
D|-------------------------------------------------|

Guitar Solo 

Guitar 1

(Up Strokes)
E|-------------------------------------------------|
B|-------------------------------------------------|
G|-------------------------------------------------|
D|-0-0-0-0-0-0-0-0-0-0-0-0-0-0-0-------------------|
A|-0-0-0-0-0-0-0-0-0-0-0-0-0-0-0-------------------|
D|-0-0-0-0-0-0-0-0-0-0-0-0-0-0-0-------------------|

(x7)
E|-------------------------------------------------|
B|-------------------------------------------------|
G|-------------------------------------------------|
D|-------0--0-0-0-0-0-0----------------------------|
A|-0h3p0----0-0-0-0-0-0----------------------------|
D|----------0-0-0-0-0-0----------------------------|

Guitar 2

Part 1 (x3)
E|-------------------------------------------------|
B|-------------------------------------------------|
G|-19-19-19-19-19-19-19-19-19-19-19-19-19-19-------|
D|-------------------------------------------------|
A|-------------------------------------------------|
D|-------------------------------------------------|

Leave Out On Third Time
E|-------------------------------------------------|
B|-------------------------------------------------|
G|-18-18-18-18-18-18-18-18-18-18-18-18-18-18-------|
D|-------------------------------------------------|
A|-------------------------------------------------|
D|-------------------------------------------------|

Part 2
E|-------------------------------------------------|
B|-------------------------------------------------|
G|-16----16----16----16----16----------------------|
D|----15----15----15----15----15-------------------|
A|-------------------------------------------------|
D|-------------------------------------------------|

E|-------------------------------------------------|
B|-------------------------------------------------|
G|-14-14-14-14-14-14-14-15-15-15-15-15-15-15-------|
D|-------------------------------------------------|
A|-------------------------------------------------|
D|-------------------------------------------------|

E|-------------------------------------------------|
B|-------------------------------------------------|
G|-16-16-16-16-16-16-16-17-17-17-17-17-17-17-17b---|
D|-------------------------------------------------|
A|-------------------------------------------------|
D|-------------------------------------------------|

[email protected] if u got any Qs
Peace Out, Rock Long, Rock Hard, Rock On


Текст, аккорды и табулатура для песни "Anyday Anyhow", исполняет "Grinspoon".
Используемые в песне аккорды можно найти в разделе Как брать аккорды. Аккорды для шестиструнной гитары. Другие песни можно найти на нашем сайте, воспользовавшись алфавитным указателем вверху страницы.


 
Ошибка в тексте? Выделите ошибку и нажмите Ctrl+Enter