------------------------------------------
SPIDERMAN / GRIM SKUNK
------------------------------------------
intro
G:-----------------------------------------------------------------------------------------|
D:-|---------------------------------------------------------------------------------------|
A:-|-12-10-7--12-10-7--12-10-7--12-10-7--7-10-7-5-7-10-7-5-7-10-7-5------------------------|
E:-----------------------------------------------------------------------------------------|

     A                                                  4x                   | B     6x
G-|-----------------------------------------------------------------|---------------------------------|
D-|-----------------------------------------------------------------|---------------------------------|
A-|-5--5-5-5---8---8--8--8----5--5-5-5---3-0-3----------|--------5---8----5---3-----------------------|
E-|----------------------------------------------------------------|----------------------------------|


A    4x

                             1x
G-|-------------------------------|
D-|-------------------------------|
A-|-5----8-----5----3----7--------|
E-|-------------------------------|

     C
G-|-------------------------------------------------------------------------------------------|
D-|-------------------------------------------------------------------------------------------|
A-|---------0-2-0-----------------0-2-0-----------------0-2-0-----------------0-2-0-----------|
E-|--0-2-3--------3-2----0-2-3---------3-2---0-2-3---------3-2---0-2-3---------3-2------------|


Ici, les 2 guit recommencent ? jouer la m?me affaire...

1:10                8x
e-|-------------------|
B-|-------------------|
G-|-------------------|
D-|-------------------|
A-|--------0-2-0------|
E-|--0-2-3-------3-2--|

    D
G-|------------------------------------------------------------------------------|
D-|-------------------------------------- - - -----------------------------------|
A-|-3--3--------0-2-0------0--0--0--2/3--3--3-----------0-2-0------0--0----------|
E-|-------0-2-3------ -3-2------------------------ --0-2-3----------3-2----------|

   E
G-|------------------------------------------------|
D-|------------------------------------------------|
A-|--7--7----7--7--10-12----7--7----7--7--5-6------|
E-|------------------------------------------------|

Maintenant, voici la partition de la rhythm durant le solo...

               12x
G-|-------------------|
D-|-------------------|
A-|--------0-2-0------|
E-|--0-2-3-------3-2--|


                                 4x                      1x
G----------------------------------------------------------------------------------------|
D-|--------------------------------------------------------------------------------------|
A-|-7-7-7-7--10-10-10-10--7-7-7-7--5-5-5-5--|--7---10---7---5---7------------------------|
E-|-------------------------------------------------------------|------------------------|


Текст, аккорды и табулатура для песни "Spiderman", исполняет "Grimskunk".
Используемые в песне аккорды можно найти в разделе Как брать аккорды. Аккорды для шестиструнной гитары. Другие песни можно найти на нашем сайте, воспользовавшись алфавитным указателем вверху страницы.


 
Ошибка в тексте? Выделите ошибку и нажмите Ctrl+Enter