Song: Roof Top Killer
Band: Grimskunk
Album: Grimskunk ( I think )
Tabbed by: Merlin ( [email protected] )

G:----------------------------------------------------------------|
D:----------------------------------------------------------------|
A:--0000-------------------------0000-----------------------------|
E:----------1111--3333-000-3--------1111-3333-000-3---------------|


G:----------------------------------------------------------------|
D:----------------------------------------------------------------|
A:--0000-------------------2-3-0----------------------------------|
E:---------1111-3333-00-------------------------------------------|


G:----------------------------------------------------------------|
D:----------------------------------------------------------------|
A:--0000-------------------2-3-0-2--------------------------------|
E:---------1111-3333-00-------------------------------------------|

G:----------------------------------------------------------------|
D:----------------------------------------------------------------|
A:--0000-----------------3-2-0-5-3-2-0----------------------------|
E:---------1111--3333---------------------------------------------|

That's pretty much what the guy plays, except for some fills and changes in the rythm

All the parts alternate in different orders


Текст, аккорды и табулатура для песни "Roof Top Killer", исполняет "Grimskunk".
Используемые в песне аккорды можно найти в разделе Как брать аккорды. Аккорды для шестиструнной гитары. Другие песни можно найти на нашем сайте, воспользовавшись алфавитным указателем вверху страницы.


 
Ошибка в тексте? Выделите ошибку и нажмите Ctrl+Enter