song: Pourquoi pourquoi ne pas fumer
Band: Grim skunk
album: Automn flower
tabbed by: Carlos Pino

G:-------------------------------------------------|
D:-------------------------------------------------|
A:------------------------------5-5-5-5-7-7--------|
E:----5-5-5-5-8--8--8--8---------------------------|

G:------------------------------------------------|
D:------------------------------------------------|
A:--------------------------5-5-5-5-7-7-7-2-------|
E:_5-5-5-5-8--8--8--8-----------------------------|


G:------------------------------------------|
D:------------------------------------------|
A:--------------------5-5-5-5-7-7-7---------|
E:5-5-5-3-3-3-3-----------------------------|

E:-5...-3...-7...-| 5X

G:------------|
D:------------|
A:------------|
E:-5-5-3------|

G:-----------------------------------------------|
D:-----------------------------------------------|
A:--------------------------5-5-5-5-7-7----------|
E:-5-5-5-5-8--8--8--8----------------------------|

G:-------------------------------------------------|
D:-------------------------------------------------|
A:--------------------------5-5-5-5-7-7-7----------|
E:-5-5-5-5-8--8--8--8------------------- 0---------|

G:---------------------------------------------|
D:---------------------------------------------|
A:----------------------5-5-5-5-7-7-7----------|
E:-5-5-5-3-3-3-3-------------------------------|

G:-------------------------------------------------------|
D:-------------------------------------------------------| 2X
A:-------------------------3-3-3-3-----3-----------------|
E:--5-5---3-3-3-3-5-5------------3-----------------------|

G:--------------------------------------------|
D:--------------------------------------------|
A:------------------3-----------3-0-3-5-3-2---|
E:-5-5-3-3-3-5----5-3-5-5---------------------|

G:---------------------------------------|
D:---------------------------------------|
A:-0-0-0-0-3-3-3-3-5-5-5-5-7-------------|

G:--------------------------------------------------|
D:--------------------------------------------------|
A:--------------------------5-5-5-5-7-7-7-7---------|
E:-5-5-5-5-8--8--8--8-------------------------------|

G:--------------------------------------------|
D:--------------------------------------------|
A:------------------------5-5-5-5-7-7-7-------|
E:-5-5-5-5-3-3-3-3----------------------------|


Текст, аккорды и табулатура для песни "Pourquoi Pourquoi Ne Pas Fumer", исполняет "Grimskunk".
Используемые в песне аккорды можно найти в разделе Как брать аккорды. Аккорды для шестиструнной гитары. Другие песни можно найти на нашем сайте, воспользовавшись алфавитным указателем вверху страницы.


 
Ошибка в тексте? Выделите ошибку и нажмите Ctrl+Enter