song: Perestroiska
band: Grimskunk
album: Exotic blend
tabbed by: Carlos Pino

-----------------|-----------------|-----------------|------|
---------2-2-----|-----------------|---------2-2-----|------|
-----3-3-----3-3-|-----2-2-5-5-2-2-|-----3-3-----3-3-|------|
-5-5-------------|-4-4-------------|-5-5-------------|------|

----------------------|
-------------3-3------|
---2-2-5-5-----5-5----|
----------------------|

On est pr?t, la m?che est allum?e...                 Pendant les Ohhhwhooooh...
                                                                                              -            
 (2X)
---------------------------------------------------------------------------------------|
---------------------------------------------------------------------------------------|
-----------------------------------------------------------0-------0-------------------|
--5--5--5--5--5--3--3--1--1--0--0--0--0--0--0--0--0-------1--1--1--0-------------------|


                                       (2X)
------------------------------------------------------------------------------------------|
------------------------------------------------------------------------------------------|
-0--0--0---------------5--5--3--3--2--2--2----0--0--0--0--0--0--0-------------------------|
-------------0--0--0---------------------------------------------------------0--0--0--0---|

------------------------------------------------------------------------------------------------------|
------------------------------------------------------------------------------------------------------|
-------------5--5--5--5--3--3--3--3--2--2--2--2--0--0--0--0--0--0-------------------------------------|
-0--0--0----------------------------------------------------------------------0--0--0--0--0--0--------|

                                                   (A la fin)
                                                    OL? !
------------------------------------------------------------ ----|
-----------------------------------------------------------------|
--5--5--5--5--3--3--3--3--2--2--2--2---------2----0--------------|
----------------------------------------------0------------------|


Текст, аккорды и табулатура для песни "Perestroiska", исполняет "Grimskunk".
Используемые в песне аккорды можно найти в разделе Как брать аккорды. Аккорды для шестиструнной гитары. Другие песни можно найти на нашем сайте, воспользовавшись алфавитным указателем вверху страницы.


 
Ошибка в тексте? Выделите ошибку и нажмите Ctrl+Enter