song: Mother of creation
band: Grimskunk
album: Grinskunk
tabbed by: Carlos Pino

G-|-------------|   |----------------------------------------------------------------------------|
D-|--------------|   |---------------------------------------------------------------------------|
A-|--2--0------|   |------2------2------2--0------2---4--2--4--2--0-------2---0------------------|
E-|---------2--|   |--2------2------2----------2--------------------------2-----------2----------|

   3x                                              4x
G-|-------------------------|   |-------------|   |-------------------------|
D-|-------------------------|   |-------------|   |-------------------------|
A-|--4-4-3-3-2-2--------|   |--2--0------|   |-----0/1-----2----2/4---------|
E-|------------------2-5-2--|   |--------2--|   |--2-------2----2-----------|

   4x                                7x
G-|--------------------------|   |------------------------------------------------|
D-|--------------------------|   |------------------------------------------------|
A-|--4-4-3-3-2-2--------|   |------------------------------------2-3-2-0----------|
E-|------------------2-5-2--|   |---0-2-0-2-0-2-2-0-2-0---------------------------|


G-|----------------------------------------------------------------------------------------------------|
D-|----------------------------------------------------------------------------------------------------|
A-|-----------------------------2-3-2-0-2----2---3-2-0--------2--3-2-0--2---2--3-2--0------2--3-2-0-2--|
E-|-0-2-0-2-0-2-2-0-2-0-------------------------------2-------------------------------------2----------|

   Fin du beat en-haut                 8x  (Sous le solo)
  |-----------------------------------------|    |-------------------------------|
  |-----------------------------------------|    |-------------------------------|
  |-2--3-2-0------------2--3-2-0-2---|    |--------------------------------------|
  |-------------2-2-2--------------------|    |-0-2-2-0-2-2-0-2-3-3--------------|

G-|----------------------------------------------------------|
D-|----------------------------------------------------------|
A-|-0-2-0-2-0-2-0-2-0-3---0-2-0-2-0-3-3-2-0------------------|
E-|----------------------------------------------------------|

G-|---------------------------------------------------------------------|-------------------------------|
D-|----------------------------------------------------------------------|------------------------------|
A-|--------------2-3-2-0---------------2-3-2-0----------------------|--2-3-2-0-3-2-0--------------------|
E-|-0-2-0-2-0-----------0-2-0-2-0------------0-2-0-2-0-2-2-0|----------------------2--------------------|

    2X
G-|---------------------------------|-----------------------|
D-|----------------------------------|----------------------|
A-|---2-3-2-0-3-2----------------|-2-3-2-0-3-2--------------|
E-|---------------------0-3-2------|-------------------0----|

G-|------------|------------------------------------------------------------------------|
D-|------------|------------------------------------------------------------------------|
A-|--2-0-----|------2-----2--------2--0------2---4--2--4--2--0-----2--0-----------------|
E-|--------2--|--2------2------2----------2--------------------------2--------2---------|

4x
G-|------------------------|-----------|-----------------------------------------|----------------------|
D-|------------------------|-----------|-----------------------------------------|----------------------|
A-|-4-4-3-3-2-2-------|-2--0-----|------------------------4-4-3-3-2-2-|-4-4-3-3-2-2---------2-0---------|
E-|----------------2-5-2-|--------2-|-0-0-0-0-0-0-0-0-------------------|-----------------2-5-2------2--|

4x   (m?me chose qu'avant)    Derni?re fois...
G-|----------------------------------------|-----------------------------------|
D-|----------------------------------------|-----------------------------------|
A-|------------------------4-4-3-3-2-2-|-4-4-3-3-2-2--------2-0----------------|
E-|-0-0-0-0-0-0-0-0------------------|------------------2-5-2-------2----------|


Текст, аккорды и табулатура для песни "Mother Of Creation", исполняет "Grimskunk".
Используемые в песне аккорды можно найти в разделе Как брать аккорды. Аккорды для шестиструнной гитары. Другие песни можно найти на нашем сайте, воспользовавшись алфавитным указателем вверху страницы.


 
Ошибка в тексте? Выделите ошибку и нажмите Ctrl+Enter