song: Lord Ogre
band: Grimskunk
album: Meltdown
tabbed by: Carlos Pino

  Intro
---------------------------------------------------------------------------------------|
 --------------------------------------------------------------------------------------|
 --------------------------------------------------------------------------------------|
 -5--3--1---0-----5--7--3--0-?-0--0--0--0--0--0--0--0--5--3--1---0--0------------------|


                           2 X                                              2 X
  ------------------------------?--------------------------------------------------------|
 ----------------------------------------------------------------------------------------|
 ----------------------------------------------------------------------------------------|
 --0--0--0--0--0--5--7--3-?--5-5-5-5-5-5-5-5--8--8--8--8--8--8--8--8---------------------|

 -----------------------------------------------------------------------|
 -----------------------------------------------------------------------|
 ----------5--5---------------------------------------------------------|
 --7--7-------------5---5--5--5--5--5--5--5--5--5--6--6--3--------------|

------------------------------|
------------------------------|
------------------------------|
--0--0--0--2--3--3--3---------|

-----------------------------------------------------------------------------------------------|
 ----------------------------------------------------------------------------------------------|
 ----------------------------------------------------------------------------------------------|
 --2--5--5--5--2--5--5--5--5--0--0--0--2--3--3--3--0--2--2--2--0--2--2--2--2-------------------|

 -----------------------------------------------------------------------------------------------------|
 -----------------------------------------------------------------------------------------------------|
 -7--7--7--7-------------------------------------------3--5--7--5--3--------------------0---2---------|
 ----------------5--5--5--5--3--3--3--3--2--2--2--------------------0--0--0-----0---------------------|


Текст, аккорды и табулатура для песни "Lord Ogre", исполняет "Grimskunk".
Используемые в песне аккорды можно найти в разделе Как брать аккорды. Аккорды для шестиструнной гитары. Другие песни можно найти на нашем сайте, воспользовавшись алфавитным указателем вверху страницы.


 
Ошибка в тексте? Выделите ошибку и нажмите Ctrl+Enter