song: Loaded gun
band: Grimskunk
album: Exotic blends
tabbed by: Carlos Pino


   14x  RIFF A        2x  RIFF B
G-|------------------|-------------------|
D-|-------------------|------------------|
A-|-5---8-----------|-5------------------|
E-|----------5--8---|-----5-5-6-6-8-8----|

   4x  RIFF D                                                               2x
G-|-------------------------|---------------------------------------|-----------------------|
D-|-------------------------|---------------------------------------|---3-------------------|
A-|-5-5--------------------|--5--3--1--3--5--3--1--3--5--5-|-5---5-3-2-3-5-3-2-3------------|
E-|-------5-5-6-6-8--8--|---------------------------------------|---------------------------|

   Pleins de fois...
G-|----------------------------|----------------------------------|
D-|---3-----------------------|---7--5--3--5--7--5--3--5--7--7----|
A-|-5---5-3-2-3-5-3-2-3-|---5--3--1--3--5--3--1--3--5--5----------|
E-|----------------------------|----------------------------------|

ordre des riffs:
-Riff B  Pleins de fois tout le long du solo
-Riff C  (pareil que le riff B dans le fond mais plus vite)
-Riff A  14x

je le sait qui manque des bouts ( comme les popping ) mais chu pas si hot que ca, fek cest ca ou cest rien


Текст, аккорды и табулатура для песни "Loaded Gun", исполняет "Grimskunk".
Используемые в песне аккорды можно найти в разделе Как брать аккорды. Аккорды для шестиструнной гитары. Другие песни можно найти на нашем сайте, воспользовавшись алфавитным указателем вверху страницы.


 
Ошибка в тексте? Выделите ошибку и нажмите Ctrl+Enter