-----------------------------------------------------------------------------
          IN EIGHT YEARS - Grim Skunk
-----------------------------------------------------------------------------

4x
G-|--------------------------------------------------------------------------|---------------------------|
D-|--------------------------------------------------------------------------|---------------------------|
A-|--------------------------------------------------------------------------|----------------1-1-1-1-1--|
E-|-0-0-3-0-5-0-5-6-6-5-3-5-3-5-6---0-0-3-0-5-0-5-6-6-5-3-|-0-0-0-0-0------------------------------------|

   2x
G-|-------------------------------------------------------------|
D-|-------------------------------------------------------------|
A-|-------------------------------------------1-1-1-1-1---------|
E-|-0-0-0-0-0-1-1-1-1-1-0-0-0-0-0-------------------------------|

G-|---------------------------------------------------------------|
D-|---------------------------------------------------------------|
A-|---------------------------------------------------------------|
E-|-0-0-3-0-5-0-5-6-6-5-3-5-3-5-6---0-0-3-0-5-0-5-6-6-5-3-5-3-3-5-|

G-|-------------------------------------------------------|
D-|-------------------------------------------------------|
A-|-------------------------------------------------------|
E-|-0-0-3-0-5-0-5-6-6-5-3-5-3-5-6---0-0-3-0-5-0-5-6-6-5-3-|

   Pre-chorus
G-|-------------------------------------------|
D-|-------------------------------------------|
A-|-------------------------------------------|
E-|-3-5-0--3-5-6-6-6-6---5-3-0--3--0--3-5-6---|

   2x
G-|-------------------------------------------------------------|
D-|-------------------------------------------------------------|
A-|----------------3-3-2-0-2-0----------------------------------|
E-|-0-0-0-0-0-----------------0-0-0-0-0--6-6-5-3-5-3-5-6--------|

   4x
G-|---------------------------------------------------|
D-|---------------------------------------------------|
A-|---------------------------------------------------|
E-|-0-0-0-0-0--0-0-0-0-/1--0-0-0-0-0--6-6-5-3-5-3-5-6-|

   Pre-chorus
G-|--------------------------------------------|
D-|--------------------------------------------|
A-|--------------------------------------------|
E-|-3-5-0--3-5-6-6-6-6---5-3-0--3--0--3-5-6----|

   1e fois  (2e chorus)  7 autres fois(2e chorus)
G-|------------------------------------|------------------------------|
D-|---------------------------------|---------------------------------|
A-|---------------1-1-1-1-1------|-------------1-1-1/5-5-5------------|
E-|-0-0-0-0-0------------------|-0-0-0-0-0----------------------------|

   Pre-chorus
G-|-----------------------------------------------------|
D-|-----------------------------------------------------|
A-|-----------------------------------------------------|
E-|-3-5-0--3-5-6-6-6-6---5-3-0--3--0--3-5-6----3-0------|

   2x  (plus lentement)
G-|----------------------------------------------------------------------|
D-|----------------------------------------------------------------------|
A-|----------------3-3-2-0-2-0-------------------------------------------|
E-|-0-0-0-0-0-----------------0-0-0-0-0--6-6-5-3-5-3-5-6-----------------|

   4x plus lentement  (I'm losing my respect for...)
G-|-----------------------------------------------------------------|
D-|-----------------------------------------------------------------|
A-|-----------------------------------------------------------------|
E-|-0-0-0-0-0--0-0-0-0-/1--0-0-0-0-0--6-6-5-3-5-3-5-6---------------|

   2x
G-|----------------------------------------------------------------------------------------|
D-|-------------------------------------------------------------------------|--------------|
A-|--------------------------3-3-2-3--------------------------1-1-0-1-|--------------------|
E-|-0-0-0-0-0-0-0-0-0------------0-0-0-0-0-0-0-0-0-------------|----0-1-0------------------|

   2x                            2x     En-dessous de la 1e partie du solo
G-|----------------------------------------------------------------------------------|
D-|-------------------------------------|--------------------------------------------|
A-|-----------------1----------3---3--|----------------------------------------------|
E-|-0------1-------------1------------|-0--0-0-0--0-0-0--0-0-0--0-0-1--1-1-1--1------|


   3x                                                    4x
G-|-------------------------------------------/--------|
D-|----------------------------------------------------|
A-|----------------------------------------------------|
E-|-7--7-7-7--7-7-7--7-7--7-5-7-8---|-7----7-5-7-8-----|


   4x     BEAT A
G-|---------------------------------------------------------------------------------------------|
D-|---------------------------------------------------------------------------------------------|
A-|-7--7-7--7/-8-/7--7--7-7-7--7/-8-/7-8--8--7--7--5--5--3--2--0--------------------------------|
E-|---------------------------------------------------------------------------------------------|

   BEAT B
G-|-----------------------------------|
D-|-----------------------------------|
A-|-8--7-7-8--7-7-8--7-7-8--10-8--7---|
E-|-----------------------------------|

   4x
G-|---------------------------------------------------------------------------------------------------|
D-|---------------------------------------------------------------------------------------------------|
A-|-7--7-7--7/-8-/7--7--7-7-7--7/-8-/7--8--8--7--7--5--5--3--2--0-|-2------------7--------------------|
E-|---------------------------------------------------------------------------------------------------|


Текст, аккорды и табулатура для песни "In Eight Years", исполняет "Grimskunk".
Используемые в песне аккорды можно найти в разделе Как брать аккорды. Аккорды для шестиструнной гитары. Другие песни можно найти на нашем сайте, воспользовавшись алфавитным указателем вверху страницы.


 
Ошибка в тексте? Выделите ошибку и нажмите Ctrl+Enter