song: Gormenghast
band: Grimskunk
album: Automn flower rerolled
tabbed by: Carlos Pino

    8x                        1x                             4x                      4x
G|---------------------|-------------------------|---------------------|-------------------------|
D|------0-------------|-------------------------|--------0-----------|---------0-----------------|
A|-2-2---2-3-2-0---|-2-3-3----------------|-2-2----2-3-2-0-|-2-2--------2-3-2-0------------------|
E|----------------------|----------3-3-5-5-3-|---------------------|-----------------------------|

  4x                    4x                          3x
|--------------------|----------------------|----------------------------------------------------|
|------0------------|-----------------------|----------------------------------------------------|
|2-2----2-3-2-0-|-2-3-3---------------|-----------------2-2-2-2-2-2------------------------------|
|--------------------|---------3-3-5-5-3-|-0-0-0-0-0-0-----------------3-3-3---3-3---------------|

                    1x
-----------------|------------------------------------------------------|------------------------|
-----------------|------------------------------------------------------|------------------------|
--------------3-|---------------2-2-2-2-2-2------------------------|-2-2-0-2-2-0-2---------------|
3-5-5-5-1----|-0-0-0-0-0-0---------------3-3-3-3-5-5-5-5--|--------------------------------------|


-----------------------------|--------------|---------------------------------|-------------|-------------|
-----------------------------|--------------|-----------------------10-9---|------------|-----------------|
2-0-2-2-0-0--------------|----------2--|-10-5-7-7-9--10-----------|----10-5-|-2-2-2-2---------------------|
-----------------3-3-0-----|-0-2--3-----|-----------------------------------------------------------------|

G (suite)      A 4x            B 3x
--------------------|--------------------|--------------------------|------------------------|
--------------------|-----0--------------|-------------------------|-------------------------|
3------------------|-2-2----2-3-2-0-|-2-3-3-----------------|-0---------(0)------------------|
---3-3-3-3-5-5-|-------------------|-----------3-3-5-5-3---|---------------------------------|

 4x
|---------------------------------------------|-------------------------------------------------|
|---------------------------------------------|-2-2-2-0-2-2-2-0-2-2-2-0-2-2-2-------------------|
|-2-2-2-0-2-2-2-0-2-2-2-0-2-3-2-0-|------------------------------------------2-3----------------|
|-----------------------------------------------|-----------------------------------------------|

                 4x
----------------------|------------------------------------------------------------------|
-------------------2-|-2-2-0/2-2-0/2-2-0/2-2--------------------0-2-0--------------------|
3-2-3-3-2-3-3----|------------------------------3-3-2-3-3-2-3----------3-2---------------|
-----------------------|-----------------------------------------------------------------|

|---------------------------------------|
|---------------------0-2-5-2-0-2-------|
|-3-3-2-3-3-2-3-------------------------|
|---------------------------------------|

|---------------------|------------------------------------------------|
|---------------------|------------------------------------------------|
|-0-2-3-2-0-2-2--|--0-2-3-2-0-2-|-0-2-0-2-|---0-2-3--------------------|
|---------------------|-------------------|------------|---------|-----|

               3x
--------------------------------------------------------------------------------------------|
--------------------------------------------------------------------------------------0-0---|
2-0-2-0-2-0-2-|-2-2-0-2-2-0-2-2-0-2-3-2-0-|-2-2-0-2-2-0-2-2-3-3-----------------------------|
--------------|---------------------------|-------------------------------------------------|


Текст, аккорды и табулатура для песни "Gormenghast", исполняет "Grimskunk".
Используемые в песне аккорды можно найти в разделе Как брать аккорды. Аккорды для шестиструнной гитары. Другие песни можно найти на нашем сайте, воспользовавшись алфавитным указателем вверху страницы.


 
Ошибка в тексте? Выделите ошибку и нажмите Ctrl+Enter