song: East coast
band: Grimskunk
album: Meltdown
tabbed by: Carlos Pino

   Intro
G-|----------------------------------------------------------------------------------|
D-|----------------------------------------------------------------------------------|
A-|-7-7-7--7-7-10-10-10-10-7-7-7-10-----10--9-------10---7-7-7--7-7-10-10-10-10-7-7--|
E-|-----------------------------------------------10----------10---------------------|

G-|-------------------------|
D-|-------------------------|
A-|-7-10-----10-9-----------|
E-|--------10---------------|


   4x
G-|----------------------------------------------------------------------------------|
D-|----------------------------------------------------------------------------------|
A-|-7--7--10--7--7--8--7--7--10--7--7---0-2-2-0-2-2-0-3-3-0-5-5----------------------|
E-|----------------------------------------------------------------------------------|

   Refrain
G-|--------------------------------------------------------------------------------------|
D-|--------------------------------------------------------------------------------------|
A-|-2-2-5-5-3---2-2-5-5-3---2-2-5-5-3--3-2-0--2-2-5-5-3--3-2-0---------------------------|
E-|--------------------------------------------------------------------------------0-----|


   2x                                               2x
G-|----------------------------------------|-------------------------------------------------------|
D-|---------------------------------------|--------------------------------------------------------|
A-|-----3-------------2-2-3-2-0-------|--------------------------------3----------------2-3-2-2-0--|
E-|-0-----2--2-2-2--------------3-2--|-0-0-0-0-0-0-0-0-0-0-0-----2-2-2-2-2---------------3-2-------|

   Passe avant le 2e verse
G-|---------------------------------------|
D-|---------------------------------------|
A-|-7-7-7--7-7-7--7-8--0------------------|
E-|-----------------------------7--10-----|

   4x   (2e verse)
G-|--------------------------------------------------------------------------|
D-|--------------------------------------------------------------------------|
A-|-7--7--10--7--7--8--7--7--10--0-2-2-0-2-2-0-3-3-0-5-5---------------------|
E-|--------------------------------------------------------------------------|

   chorus
G-|-------------------------------------------------------------------------|
D-|-------------------------------------------------------------------------|
A-|-2-2-5-5-3--2-2-5-5-3--2-2-5-5-3--2-2-5-5-3--3-2-0-----------------------|
E-|--------------------------------------------------------------------0----|

G-|-------------------------------------------------------------------------------------------------|
D-|-------------------------------------------------------------------------------------------------|
A-|-------------3-------2-2-2--2-2-2--2-2-2------------------------------------------------3--------|
E-|-0-------0----2--------------------------------3-2----------0--0-0-0--0-0-0--0-0-0-----2--2-2-2--|

G-|---------------------------------------------------------------------------------------------------|
D-|---------------------------------------------------------------------------------------------------|
A-|----------2-2-2--2-2-2--2-2-2--2-2-2-2-3-2-0------------------------------------3------------------|
E-|-2-2-2------------------------------------------------3-2-0--0-0-0--0-0-0--0-0-0----2--2-2-2--2-2--|

G-|-----------------------------------------------------|
D-|-----------------------------------------------------|
A-|-----2-2-2--2-2-2--2-2-2-2-3-2-0---------------------|
E-|-2----------------------------------------3-2-0------|

   2x       (Passe avant le 3e verse)
G-|---------------------------------------------------------------------------------|
D-|---------------------------------------------------------------------------------|
A-|-7-7-7--7-7-10-10-10-10----------------------------------------------------------|
E-|----------------------------------10-10-10----10-10-10--8--7---8-----------------|

2x
G-|---------------------------------|
D-|---------------------------------|
A-|--7--5---------7--7-5-3-2--------|
E-|---------------------------------|

     last chorus
G-|-------------------------------------------------------------------------------------|
A-|-------------------------------------------------------------------------------------|
D-|-2-2-2-5-5-5-3-3-3--3-2-0--2-2-2-5-5-5-3-3-3--3-2-0--2-2-2-5-5-5-3-3-3--3-2-0--2-2-2-|
E-|-------------------------------------------------------------------------------------|

G-|--------------------------------|
D-|--------------------------------|
A-|-5-5-5--3-2-0-2-5-3-2--2-5-3-2--|
E-|--------------------------------|


Текст, аккорды и табулатура для песни "East Coast", исполняет "Grimskunk".
Используемые в песне аккорды можно найти в разделе Как брать аккорды. Аккорды для шестиструнной гитары. Другие песни можно найти на нашем сайте, воспользовавшись алфавитным указателем вверху страницы.


 
Ошибка в тексте? Выделите ошибку и нажмите Ctrl+Enter