-----------------------------------------------------
DEAD END VIOLENCE / Grim Skunk
-----------------------------------------------------

G-|---------------------------------------------|
D-|---------------------------------------------|
A-|-------------3-3-3-3-3-3-2-2-2-2-2-2---------|
E-|-0-0-0-0-0-0-------------------------3-3-2-2-|

4x
G-|----------------------------------------------------------------|
D-|----------------------------------------------------------------|
A-|-----------------3-3-3-3-3-3-2-2-2-2-2-2------------------------|
E-|-0-0-0-0-0-0---------------------------------3-3-2-2------------|

   4x (mut?) Jusqu'?:
G-|----------------------------------------------------------------------|
D-|----------------------------------------------------------------------|
A-|-------------------2-2-2-2-2-2-3-3-3-3-3-2-2-2-2-2--------------------|
E-|--0-0-0-0-0-0--------------------------------------------3-3--2-2-----|

   2x  (Pas mut?)  A partir
G-|------------------------------------------------------------------------------------------|
D-|------------------------------------------------------------------------------------------|
A-|------------3-3-3-3-2-2-2-2---------------------------------0-0-0-0-3-3-3-3---------------|
E-|-0-0-0-0----------------------3-3-2-2--0-0-0-0-3-3-3-3------------------------------------|

G-|-------------------------|-----------------------------------|
D-|-------------------------------------------------------------|
A-|---------------------------------------------------------|---|
E-|-0-3-2-1-2-3-0-3-2-1-2-3-|-0-0-0-0-0-0-0-0-0-----------------|

   4x
G-|-------------------------------------------------------------------------|
D-|-------------------------------------------------------------------------|
A-|----------------3-3-3-3-3-3-2-2-2-2-2-2-5-5-4-4--------------------------|
E-|-0-0-0-0-0-0-------------------------------------------3-3-2-2-----------|

   4x (mut?) Jusqu'?
G-|-----------------------------------------------------------------|
D-|-----------------------------------------------------------------|
A-----------------|-2-2-2-2-2-2-3-3-3-3-3-2-2-2-2-------------------|
E-|-0-0-0-0-0-0----------------------------------------3-3--2-2-----|

   2x  (Pas mut?)  A partir
G-----------------------------------------------------------------------------------------|
D-----------------------------------------------------------------------------------------|
A-|-----------2-2-2-2-3-3-3-3-2-2-2-2-----------------------------------0-0-0-0-3-3-3-3---|
E-|-0-0-0-0---------------------------------3-3-2-2--0-0-0-0-3-3-3-3----------------------|

G-|-------------------------|--------------------------------------------|
D-|----------------------------------------------------------------------|
A-|----------------------------------------------------------------------|
E-|-0-3-2-1-2-3-0-3-2-1-2-3-|-0-0-0-0-0-0-0-0-0--------------------------|


G-|---------------------------------------------------------------------------|---|
D-|-------------------------|-----------------------------------------------------|
A-|-----------------------------------0-0-0-0-0-0-0-3-3-3-3-3-3-3-3---------------|
E-|-0-0-0-0-0-0-0-0-0-0-0-0-|-----------------------------------------------------|

   4x                     2x
G-|-------------------------------------------------------------|-----|
D-|-------------------------------------------------------------|-----|
A-|-2-2-2-2-2-2-3-6-5-3--|-0-0-0-0-0-0-0-0-3-3-3-3-3-3-3-3------------|
E-|----------------------|--------------------------------------------|

G-|---------------------------------------------------------|
D-|---------------------------------------------------------|
A-|---------------------------------------------------------|
E-|-0-0-0-0-0-0-0-0-0-0-0-0-0-0-0-0-------------------------|

G-|------------------------------------------------------------|
D--------------------------------------------------------------|
A-|-------------------3-3-3-3-3-3-2-2-2-2-2-2------------------|
E-|-0-0-0-0-0-0-----------------------------------3-3-2-2------|


Текст, аккорды и табулатура для песни "Dead End Violence", исполняет "Grimskunk".
Используемые в песне аккорды можно найти в разделе Как брать аккорды. Аккорды для шестиструнной гитары. Другие песни можно найти на нашем сайте, воспользовавшись алфавитным указателем вверху страницы.


 
Ошибка в тексте? Выделите ошибку и нажмите Ctrl+Enter