song: circle,square,triangle
band: Grimskunk
album: grimskunk
tabbed by: Carlos Pino

verse
   2x                                                      3x
G-|------------------------------------------------|------------------------------------------|
D-|------------------------------------------------|------------------------------------------|
A-|------------------------------------------------|------------------------------------------|
E-|---8--8---8--5--7--3-----8--5--7--7--3--|--8--8--8--5--7--3--2--2--3--0--------------------|

                        4x
G-|---------------------------|--------------------|----------------------------------------|
D-|---------------------------|--------------------|----------------------------------------|
A-|---------------------------|--------3-3-0-3--|-------------------------------------------|
E-|---8---8---8--5--7--3--|-0--0-------------|--8--8--8---5--7--3--5--2--3------------------|

   8x  Paroles                    2x  (We're tearing at...)       8x  Paroles
G-|-------------------------------|--------------------------------------|---------------------------------|
D-|-------------------------------|--------------------------------------|---------------------------------|
A-|----------3-3-3-0-0-0-3-3-|-----------------------0-0-0-3-3-|----------3-3-3-0-0-3-3--------------------|
E-|-0-0-0-----------------------|--0-0-0-0-0-0-3-3---------------|-0-0-0-----------------------------------|

   4x)
G-|--------------------|
D-|--------------------|
A-|-------3-3-0-3------|
E-|-0--0---------------|

   4x                                    2x
G-|------------------------------|---------------|
D-|------------------------------|---------------|
A-|------------0-0-----------3-|----------3------|
E-|-0-0-0-3--------0-0-0----|-0-0-0--------------|

   6x                            11x
G-|--------------------------|----------------------------------------------------------------------|
D-|--------------------------|----------------------------------------------------------------------|
A-|------3---2--------------|-----------------3-3-3-3-3-3-0-0-0-0-0-0-3-3-3-3-3-3-------------------|
E-|-0-------------2--2--2-|-0-0-0-0-0-0-------------------------------------------------------------|

   FIN
G-|--------------------------------------------------------------------------------------------------|
D-|--------------------------------------------------------------------------------------------------|
A-|-------3-3-0-0-3-3------3-3-0-0-3-3-------3-3-0-0-3-3-------3-3-0-0-3-3-3-3-----------------------|
E-|-0-0------------------0-0------------------0-0-----------------0-0--------------------------------|


Текст, аккорды и табулатура для песни "Circle Square Triangle", исполняет "Grimskunk".
Используемые в песне аккорды можно найти в разделе Как брать аккорды. Аккорды для шестиструнной гитары. Другие песни можно найти на нашем сайте, воспользовавшись алфавитным указателем вверху страницы.


 
Ошибка в тексте? Выделите ошибку и нажмите Ctrl+Enter