----------------------------------------------------------------------------
                    BUGS IN BILLY BOB'S BED - GRIM SKUNK
----------------------------------------------------------------------------

   4x         4x      4x                                           4x
G-|---------?-------?--------------------------------|--------------------------------------|
D-|---------?-------?---------------------------------|-------------------------------------|
A-|---------?-------?---------------------------------|-5--5--8--10--11--10--8--------------|
E-|-3-4-5-|-5-5-|-5--5--8--10--11--10--8---|------------------------------------------------|

   4x                                           2x              4x   (Verse)
G-|---------------------------------?------------?--------------------------------------|
D-|---------------------------------?-------------|-------------------------------------|
A-|---------------------------------?-------------|-------------------------------------|
E-|-5--5--8--10--11--10--8---|-3-4-5----|-0-0-5-5-0-0-3-3-0-0-5-5-0-1-2-3---------------|

   2x (Verse)                         2x  (Verse)
G-|---------------------------------------------------|----------------------------------------------|
D-|--------------------------------------------------|-----------------------------------------------|
A-|-0-0-5-5-0-0-3-3-0-0--5-5----------------|--------------------------------------------------------|
E-|----------------------------------3-2-1-0-------|-0-0-5-5-0-0-3-3-0-0-5-5-0-1-2-3-----------------|

         6x                        4x            6x      Don't you know ...
G-|----- |----------------------------------?----------------------------------------------------------|
D-|------?----------------------------------?----------------------------------------------------------|
A-|------?----------------------------------?--------------------------------------3-4-5-----------0---|
E-|-5-5-|-5--5--8--10--11--10--8---|-11-10-8----|-3-4-5-|-3-4-5----------3-4-5-------------------------|


Текст, аккорды и табулатура для песни "Bugs In Billy Bobs Bed", исполняет "Grimskunk".
Используемые в песне аккорды можно найти в разделе Как брать аккорды. Аккорды для шестиструнной гитары. Другие песни можно найти на нашем сайте, воспользовавшись алфавитным указателем вверху страницы.


 
Ошибка в тексте? Выделите ошибку и нажмите Ctrl+Enter