----------------------------------------
BRUSSELS 109 / grim skunk
----------------------------------------

Intro
G --------|--------|--------|--------|--------|----------------|
D --------|--------|--------|--------|--------|----------------|
A --------|--------|--------|--------|--------|3-----3----3----|
E --------|--------|--------|--------|--------|----------------|

Riff 1
G --------|--------|--------|--------|--------|--------|
D --------|--------|--------|--------|--------|--------|
A 00000000|00000000|33333333|33333333|00000000|33333333|
E --------|--------|--------|--------|--------|--------|

G --------|--------|--------|----------------|
D 33333333|3-2-0---|--------|----------------|
A --------|------3-|00000000|3-----3----3----|
E --------|--------|--------|----------------|

Riff 2
G --------|--------|--------|--------|--------|--------|
D 0-000-02|3333320-|--------|--------|00000000|33333333|
A -----3--|-------3|00000000|33333333|--------|--------|
E --------|--------|--------|--------|--------|--------|

G --------|----------------|--------|--------|--------|--------|
D --------|----------------|00000-02|33333333|00000-02|3333320-|
A 00000000|3-----3----3----|-----3--|--------|-----3--|-------3|
E --------|----------------|--------|--------|--------|--------|

Riff 3
G --------|--------|--------|--------|--------|--------|--------|--------|

D --------|--------|00000000|00000000|--------|--------|00000000|00000000|
A 00000000|00000000|--------|--------|00000000|00000000|--------|--------|
E --------|--------|--------|--------|--------|--------|--------|--------|

Riff 4
G --------|--------|--------|--------|--------|--------|--------|--------|
D -----2-0|-0000-02|33333322|00------|----20-0|-0000-02|33333333|2200----|
A 0-000-3-|-----3--|--------|--3300--|0-00--3-|-----3--|--------|----3300|
E --------|--------|--------|------33|--------|--------|--------|--------|

Riff 5
G --------|--------|--------|--------|--------|--------|
D -----0--|--------|-----0--|---02---|2----0--|--------|
A 0--3---0|-000000-|---3----|--3--30-|---3---3|-3333333|
E --------|--------|1------3|-3------|--------|--------|

Riff 2
G --------|--------|--------|--------|--------|--------|
D 0-000-02|3333320-|--------|--------|00000000|33333333|
A -----3--|-------3|00000000|33333333|--------|--------|
E --------|--------|--------|--------|--------|--------|

G --------|----------------|--------|--------|--------|--------|
D --------|----------------|00000-02|33333333|00000-02|3333320-|
A 00000000|3-----3----3----|-----3--|--------|-----3--|-------3|
E --------|----------------|--------|--------|--------|--------|

Riff 3~
G --------|--------|--------|--------|
D --------|--------|00000000|00000000|
A 00000000|00000000|--------|--------|
E --------|--------|--------|--------|

Riff 4
G --------|--------|--------|--------|--------|--------|--------|--------|
D -----2-0|-0000-02|33333322|00------|----20-0|-0000-02|33333333|2200----|
A 0-000-3-|-----3--|--------|--3300--|0-00--3-|-----3--|--------|----3300|
E --------|--------|--------|------33|--------|--------|--------|--------|

Riff 4
G --------|--------|--------|--------|--------|--------|--------|--------|-|
D -----2-0|-0000-02|33333322|00------|----20-0|-0000-02|33333333|2200----|-|
A 0-000-3-|-----3--|--------|--3300--|0-00--3-|-----3--|--------|----3300|0|
E --------|--------|--------|------33|--------|--------|--------|--------|-|

Intro~                                           (slide)
G |--------|--------|--------|--------|----------------|----------------|
D |--------|--------|--------|--------|----------------|----------------|
A |--------|--------|--------|--------|------------3/5-|3-----3----3----|
E |--------|--------|--------|--------|----------------|----------------|

Riff 1
G --------|--------|--------|--------|--------|--------|
D --------|--------|--------|--------|--------|--------|
A 00000000|00000000|33333333|33333333|00000000|33333333|
E --------|--------|--------|--------|--------|--------|

G --------|--------|--------|--------|
D 33333333|3-2-0---|--------|--------|
A --------|------3-|00000000|3--3--3-|
E --------|--------|--------|--------|

Riff 2
G --------|--------|--------|--------|--------|--------|
D 0-000-02|3333320-|--------|--------|00000000|33333333|
A -----3--|-------3|00000000|33333333|--------|--------|
E --------|--------|--------|--------|--------|--------|

G --------|----------------|--------|--------|--------|--------|
D --------|----------------|00000-02|33333333|00000-02|3333320-|
A 00000000|3-----3----3----|-----3--|--------|-----3--|-------3|
E --------|----------------|--------|--------|--------|--------|

Ending
G --------|
D --------|
A 0--3---0|
E -----3--|


Текст, аккорды и табулатура для песни "Brussels 1", исполняет "Grimskunk".
Используемые в песне аккорды можно найти в разделе Как брать аккорды. Аккорды для шестиструнной гитары. Другие песни можно найти на нашем сайте, воспользовавшись алфавитным указателем вверху страницы.


 
Ошибка в тексте? Выделите ошибку и нажмите Ctrl+Enter