e|--------------------------------------------------------------|
B|-------3---4---3---------3--4---------3--4--3-----------------|
G|-5---0----0---0----5---0---0----5---0---0--0---5-3h5-3--------|
D|-5----------------------------------------------------5-3h5-5-|
A|-3------------------------------------------------------------|
E|--------------------------------------------------------------|

e|------------------------------|--------------------------------|
B|---3--4--3----------3--4------|---3--4--6-8-6-4--3-4--3-1------|
G|-0---0--0--5--5---0---0---5---|-0---0----------------------3-0-|
D|------------------------------|--------------------------------|
A|------------------------------|--------------------------------|
E|------------------------------|--------------------------------|



e|------------------------------------|
B|------------------------------------|
G|-5-5-5-5--6-6-6-6--7-7-7-7-7--8-8-8-|
D|-5-5-5-5--6-6-6-6--7-7-7-7-7--8-8-8-|
A|-3-3-3-3--4-4-4-4--5-5-5-5-5--5-5-5-|
E|------------------------------------|


e|---------------------------------------------------------------|
B|-------3---4---3---------3--4---------3--4--3------------------|
G|-5---0----0---0----5---0---0----5---0---0--0---5-3h5-5-3-------|
D|-5-------------------------------------------------------5-3h5-|
A|-3-------------------------------------------------------------|
E|---------------------------------------------------------------|

e|-----------------------------|--------------------------------|
B|---3--4--3---------3--4------|---3--4--6-8-6-4--3-4--3-1------|
G|-0---0--0--5-----0---0---5---|-0---0----------------------3-0-|
D|-----------------------------|--------------------------------|
A|-----------------------------|--------------------------------|
E|-----------------------------|--------------------------------|

[01:25]

e|------------------------------------|
B|------------------------------------|
G|-5-5-5-5--6-6-6-6--7-7-7-7-7--8-8-8-|
D|-5-5-5-5--6-6-6-6--7-7-7-7-7--8-8-8-|
A|-3-3-3-3--4-4-4-4--5-5-5-5-5--6-6-6-|
E|------------------------------------|

[01:37]
   2X
e|-----------------------------------|------------------------------------|
B|-----------------------------------|------------------------------------|
G|-5-5-5-5---------------------------|-5-5-5-5-----------3-3-3-3----------|
D|-5-5-5-5--6-6-6-6--3-3-3-3-3-3-3-3-|-5-5-5-5--6-6-6-6--3-3-3-3--3-3-3-3-|
A|-3-3-3-3--6-6-6-6--3-3-3-3-3-3-3-3-|-3-3-3-3--6-6-6-6--1-1-1-1--3-3-3-3-|
E|----------4-4-4-4--1-1-1-1-1-1-1-1-|----------4-4-4-4-----------1-1-1-1-|

[01:46]
                                       2X
e|-----------------------------------|-------------------------------|
B|-----------------------------------|-------------------------------|
G|-5-5-5-5---------------------------|-5-5-5-5--8-8-8-8--10-10-10-10-|
D|-5-5-5-5--6-6-6-6--3-3-3-3-3-3-3-3-|-5-5-5-5--8-8-8-8--10-10-10-10-|
A|-3-3-3-3--6-6-6-6--3-3-3-3-3-3-3-3-|-3-3-3-3--6-6-6-6--8--8--8--8--|
E|----------4-4-4-4--1-1-1-1-1-1-1-1-|-------------------------------|

e|------------------------------------|-----------------------------|
B|------------------------------------|-----------------------------|
G|-5-5-5-5-----------3-3-3-3----------|-5-5-5-5---------------------|
D|-5-5-5-5--6-6-6-6--3-3-3-3--3-3-3-3-|-5-5-5-5--6-6-6-6--3-3-3-3-3-|
A|-3-3-3-3--6-6-6-6--1-1-1-1--3-3-3-3-|-3-3-3-3--6-6-6-6--3-3-3-3-3-|
E|----------4-4-4-4-----------1-1-1-1-|----------4-4-4-4--1-1-1-1-1-|

[02:03]

e|-------------------------|---------------------------------------------------|
B|-------3--3---3----------|-----4-3--3---3-4-3-------3---4-3-----3---3--4-3---|
G|-5--5---5--5---5p3---5p3-|-5----------0-------5-0-----0-------5---5--------5-|
D|-5-----------------------|-5-------------------------------------------------|
A|-3-----------------------|-3-------------------------------------------------|
E|-------------------------|---------------------------------------------------|

[02:40]

   2X
e|-----------------------------------|------------------------------------|
B|-----------------------------------|------------------------------------|
G|-5-5-5-5---------------------------|-5-5-5-5-----------3-3-3-3----------|
D|-5-5-5-5--6-6-6-6--3-3-3-3-3-3-3-3-|-5-5-5-5--6-6-6-6--3-3-3-3--3-3-3-3-|
A|-3-3-3-3--6-6-6-6--3-3-3-3-3-3-3-3-|-3-3-3-3--6-6-6-6--1-1-1-1--3-3-3-3-|
E|----------4-4-4-4--1-1-1-1-1-1-1-1-|----------4-4-4-4-----------1-1-1-1-|

                                       2X
e|-----------------------------------|-------------------------------|
B|-----------------------------------|-------------------------------|
G|-5-5-5-5---------------------------|-5-5-5-5--8-8-8-8--10-10-10-10-|
D|-5-5-5-5--6-6-6-6--3-3-3-3-3-3-3-3-|-5-5-5-5--8-8-8-8--10-10-10-10-|
A|-3-3-3-3--6-6-6-6--3-3-3-3-3-3-3-3-|-3-3-3-3--6-6-6-6--8--8--8--8--|
E|----------4-4-4-4--1-1-1-1-1-1-1-1-|-------------------------------|


e|------------------------------------|-----------------------------|
B|------------------------------------|-----------------------------|
G|-5-5-5-5-----------3-3-3-3----------|-5-5-5-5---------------------|
D|-5-5-5-5--6-6-6-6--3-3-3-3--3-3-3-3-|-5-5-5-5--6-6-6-6--3-3-3-3-3-|
A|-3-3-3-3--6-6-6-6--1-1-1-1--3-3-3-3-|-3-3-3-3--6-6-6-6--3-3-3-3-3-|
E|----------4-4-4-4-----------1-1-1-1-|----------4-4-4-4--1-1-1-1-1-|


Текст, аккорды и табулатура для песни "Jsuis Comatose", исполняет "Grim Skunk".
Используемые в песне аккорды можно найти в разделе Как брать аккорды. Аккорды для шестиструнной гитары. Другие песни можно найти на нашем сайте, воспользовавшись алфавитным указателем вверху страницы.


 
Ошибка в тексте? Выделите ошибку и нажмите Ctrl+Enter