song:your puppet and clown
artist:greyhoundz                        strings 
tabbed by:leander m.              1st 2nd 3rd 4th 5th 6th
Note:tune guitar 1 whole step down D   A   F   C   G   D

Intro:(guitar I & II)guitar II with pedal pitch
D|--9-9----------------|
A|------9-9------------|
F|----------10-10------|
C|----------------9-9--|
G|---------------------|
D|---------------------|

D|--9-9------------------------------|
A|------9-9-10-10-----9-9------------|
F|----------------9-9-----8-8-9-----|
C|-------------------------------9--|
G|-----------------------------------|
D|-----------------------------------|

stanza:
guitar I(bent slowly & play with the wah ped. like the voice of the voc.)
D|--10-----|
A|---9^11--|
F|---------|just hear the song
C|---------| how it done and 
G|---------|how the ped. wah used
D|---------|

guitar II
D|-9-9-----------------------------14-14---------------------------------------|
A|-----9-9-------------------------------14-14-15-15-------14-14---------------|
F|---------10-10-----9-9-----------------------------14-14-------13-13--14-----|
C|---------------9-9-----8-8-9---------------------------------------------14--|
G|-----------------------------9-----------------------------------------------|
D|-----------------------------------------------------------------------------|

refrain:(hold me...hold me)heavy distort sound
D|----------------------------------||-------------------------------|
A|--9--------------9-9--------------||--9-------------9--------------|
F|----8-8-9-9-6-6------8-8-9-9-6-6--||----8-8-9-9-6-6---8-8-9-9-6-6--|
C|----------------------------------||-------------------------------|
G|----------------------------------||-------------------------------|
D|----------------------------------||-------------------------------|

pre-chorus:(left me up and let go)
D|-----------------------------------------|
A|-----------------------------------------|
F|-----------------------------------------|
C|--11-----11---11-12-----12---12-12---12--|
G|--11-----11---11-12-----12---12-12---12--|
D|---9-0-0--9-0--9-10-0-0-10-0-10-10-0-10--|
       . .    .       . .    .       . 
                                  strum
D|-----------------------------------------------|
A|-----------------------------------------------|
F|-----------------------------------------------|
C|--10----10----10-10---10--11-11-11-11-11-11--|
G|---8-----8-----8--8----8---9--9--9--9--9--9--|
D|---0-0-0-0--0--0--0-0--0---0--0--0--0--0--0--|
        . .     .       . 
chorus:watch me fall watch me need watch me bleed and enjoy enjoy as you
D|------------------------------|
A|------------------------------|
F|------------------------------|
C|----4---4--54----4---4--54--|
G|----4---4--54----4---4--54--|
D|--0-2-0-2--32--0-2-0-2--32--|
    . . . .       . . . .
step on my(3x)my heart coz u u know I(3x)I'd smile
stangle my(3x) neck coz u u know I(3x)I'd still laugh           
D|------------------------------------||------|
A|------------------------------------||------|
F|------------------------------------||------|
C|----4---4---4---4---4---4---4-------||--11--|
G|----4---4---4---4---4---4---4--45--||--11--|
D|--0-2-0-2-0-2-0-2-0-2-0-2-0-2-------||---9--|
    . . . . . . . . . . . . . . 
repeat stanza guitar I riff with delay sound effects(guitar I
repeat refrain
repeat pre-chorus
repeat chorus

bridge:(4x without palm mute)(4x with palm mute)I dnt check this if correct
D|------------------------------------------||---------|
A|------------------------------------------||---------|
F|--------------------------------10h11-10--||--11p10--|
C|----------------------9-11-11-9-----------||---------|
G|----------9----9-11-9---------------------||---------|
D|--9-10-12---11----------------------------||---------|


thought you'd patch my holes but youved day a deeper wound
(do it fast)
D|-------------------------------||--------|
A|-------------------------------||--------|
F|--10-10------------------------||--------|
C|--10-10--1211---1211---9/11--||--9/10--|(4x)
G|---8--8--1211---1211---9/11--||--9/10--|
D|---0--0--10-9-0-10-9-0-7/-9--||--7/-8--|

bridge II:
Im your puppet
Im your clown
D|--------------------------------------|
A|--------------------------------------|
F|--------------------------------------|
C|--1211-1211-911--1211-1211-911--|(8x)
G|--1211-1211-911--1211-1211-911--|
D|--10-9-10-9-7-9--10-9-10-9-7-9--|

repeat pre-chorus
repeat chorus(step on my stpe on my)
repeat im your puppet
repeat refrain riff

tabbed by:leander m.(robot)
                                end


Текст, аккорды и табулатура для песни "Your Puppet And Clown", исполняет "Greyhoundz".
Используемые в песне аккорды можно найти в разделе Как брать аккорды. Аккорды для шестиструнной гитары. Другие песни можно найти на нашем сайте, воспользовавшись алфавитным указателем вверху страницы.


 
Ошибка в тексте? Выделите ошибку и нажмите Ctrl+Enter