song:pig face
album:seven corners of your game
artist:greyhoundz
tabbed by:leander m.
info:contact me [email protected] text/call 09193216020
intro/chorus:
E|-----------------------|    -------------------------|
B|-----------------------|    -------------------------|
G|-----------------------|(3x)-------------------------|
D|----5/4-----5/4-----9--|    ----9/7-----7/6-----6-4--|
A|----3/2-----3/2-----7--|    ----7/5-----5/4-----4-2--|
D|--0-0/0-0-0-0/0-0-0-0--|    --0-0/0-0-0-0/0-0-0-0-0--|
    .     . .     . .           .     . .     . .
stanza I riff(with little pitch
E|---------------------------------    --------------------------------|
B|-----12----12----12----12----12--    -----12---10---12---10----12----|
G|--11----11----11----11----11-----(3x)--11----9----8----9----11-------|
D|---------------------------------    --------------------------------|
A|---------------------------------    --------------------------------|
D|---------------------------------    --------------------------------|

repeat chorus

riff
E|--------------------------------------
B|--------------------------------------
G|--------------------------------------
D|--4-----7~~-------4--4-----5~~-5h7-4--
A|--2-----5~~-------2--2-----5~~-5h7-2--
D|--0-0-0-0~~-7-7-0-0--0-0-0-5~~-5h7-0--
     . .    . .        . .
-----------------------------------------------|
-----------------------------------------------|
-----------------------------------------------|
--4-----7~~-------4-----2h3p2---2h3p2---2-3----|
--2-----5~~-------2-2h4-------5-------4-----2--|
--0-0-0-0~~-7-7-0-0----------------------------|
    . .     . .
riff II
E|-------------------------|
B|-------------------------|
G|-------------------------|(3x)
D|--4-----97-------7/6-4--|
A|--2-----75-------5/4-2--|
D|--0-0-0-0-0-0-0-0/0-0--|
      . .     . .
E|-----------------------------|
B|-----------------------------|
G|-----------------------------|         
D|--9-----97-----76-----6-4--|
A|--7-----75-----54-----4-2--|
D|--0-0-0-0-0-0-0-0-0-0-0--|
      . .     . .     . .
repeat chorus riff
stanza
chorus
...put it away 

tabbed by:[email protected]   the end


Текст, аккорды и табулатура для песни "Pig Face", исполняет "Greyhoundz".
Используемые в песне аккорды можно найти в разделе Как брать аккорды. Аккорды для шестиструнной гитары. Другие песни можно найти на нашем сайте, воспользовавшись алфавитным указателем вверху страницы.


 
Ошибка в тексте? Выделите ошибку и нажмите Ctrl+Enter