info:greyhoundz is one of the great rep metal band here in the philippines
song:even
artist:greyhoundz
tab by:leander m.
legend:artificial harmonics
       . palm mute
       / slide
        ^ bent to
tune guitar:D G C F A D

intro:(8x)
D|---------------------------------------------|
A|---------------------------------------------|
F|---------------------------------------------|
C|----6--106-6-6--76----6--106--6-6-6--76--|
G|--4-4---84-4-4--54--4-4---84--4-4-4--54--|
D|--0-0-- 0-0-0--0--0-0---0--0-0-0--0--|

stanza:
guitar I(repeat this process until...refrain)    guitar II
D|-------------------------------------------||------------------------|
A|-------------------------------------------||------------------------|
F|---steady then press pitch shifter--||--12^14-12-12-9^11-9-9--|
C|-------------------------------------------||------------------------|
G|-------------------------------------------||------------------------|
D|-------------------------------------------||------------------------|

repeat I-Gave unto you
D|-----------------------------------|
A|-----------------------------------|
F|-----------------------------------|
C|--6-6--6-6-6-6-6-6-6-6-6-6--6-6-6--|
G|--4-4--4-4-4-4-4-4-4-4-4-4--4-4-4--|
D|--0-0--0-0-0-0-0-0-0-0-0-0--0-0-0--|
         . . . . . . . . . .
chorus:(8x)-I love you the way you take your tears
D|----------------------------------------|
A|----------------------------------------|
F|----------------------------------------|
G|----6--106--6-6--76----6-106-6--76--|
C|--4-4---84--4-4--54--4-4--84-4--54--|
D|--0-0---0--0-0--0--0-0--0-0--0--|

then stanza again
repeat refrain
repeat chorus

solo:
guitar II
D|---------------------|
A|---------------------|
F|---------------------|
C|--6x-6x-7-7-6-6-6-6--|
G|--4x-4x-5-5-4-4-4-4--|
D|--0x-0x-0-0-0-0-0-0--|
          . . . . . 
guitar II(when bent is done press pedal wah)
D|------------------------------------------------------|
A|--12-----15-----12----15-----15----18----15----18-----|
F|--11^13--14^16--11^13-14^16--14^16-17^19-14^16-17^19--|
C|------------------------------------------------------|
G|------------------------------------------------------|
D|------------------------------------------------------|

repeat intro
repeat guitar II stanza
repeat chorus
repeat refrain riff
submitted by:leander m.
              the_end
             c0R@_t!r@


Текст, аккорды и табулатура для песни "Even", исполняет "Greyhoundz".
Используемые в песне аккорды можно найти в разделе Как брать аккорды. Аккорды для шестиструнной гитары. Другие песни можно найти на нашем сайте, воспользовавшись алфавитным указателем вверху страницы.


 
Ошибка в тексте? Выделите ошибку и нажмите Ctrl+Enter