Artist-Green Lizard
Song-Turn Around
Album-identity
Instrument-Guitar
Tabbed by Ragbagger

The song is good tabbed because I spoke to them and Willy the first gitarist he learn me the song how to play.
First theirs is a bass intro later the guitar comes in on this part:

...it was a quarter past seven

Guitar 1
|-----------------------------
|-----------------------------
|-333-------------------------
|-333--333---555--------------
|-111--333---555--------------
|------111---333--------------

Guitar 2
|-----------------------------
|-------7---------------------
|----5h7----------------------
|------8----------------------
|-----------------------------
|-----------------------------

Pre chorus:

Who knows..why black flies live for one day

Guitar 1
|-----------------------------
|-----------------------------
|-----------------------------
|-1---5---3-------------------
|-1---5---3-------------------
|-1---5---3-------------------

Who knows..why

Guitar 2
|------------------------------
|-08---12--12-08---------------
|--x----x---x--x---------------
|-11---15--15-11---------------
|------------------------------
|------------------------------

black flies just live for one day
|-------------------------------
|---07---08-10---08-------------
|----x----x--x----x-------------
|---10---11-13---11-------------
|-------------------------------
|-------------------------------

Chorus:
Hey turn around
|-------------------------------
|-------------------------------
|---------8-8-8-8-5-5-5-5-------
|-5-5-5-5-8-8-8-8-5-5-5-5-------
|-5-5-5-5-6-6-6-6-3-3-3-3-------
|-5-5-5-5-----------------------

back to tell..
|-------------------------------
|-------------------------------
|-8-8-8-8-8-8-8-7-7-7-7-7-7-7---
|-8-8-8-8-8-8-8-7-7-7-7-7-7-7---
|-6-6-6-6-6-6-6-5-5-5-5-5-5-5---
|-------------------------------

now..			(also the bridge)
|-------------------------------
|-------------------------------
|-5-5-5-5-5-5-5-----------------
|-5-5-5-5-5-5-5-----------------
|-3-3-3-3-3-3-3-----------------
|-------------------------------

2 late to say..
|--------------------------------
|--------------------------------
|---------3-3-3-3---5------------
|-1-1-1-1-3-3-3-3-3-5-5-5--------
|-1-1-1-1-1-1-1-1-3-3-5-3--------
|-1-1-1-1---------3--------------

Then he use a “boss”pedal to play this:

You and I all the time..
|--------------------------------
|--------------------------------
|--------------------------------
|-1----3-----5-------------------
|-1----3-----5-------------------
|-1----3-----5-------------------

And that’s it!!!!!


Текст, аккорды и табулатура для песни "Turn Around", исполняет "Green Lizard".
Используемые в песне аккорды можно найти в разделе Как брать аккорды. Аккорды для шестиструнной гитары. Другие песни можно найти на нашем сайте, воспользовавшись алфавитным указателем вверху страницы.


 
Ошибка в тексте? Выделите ошибку и нажмите Ctrl+Enter