Artist: Green Jelly
Song:   Misadventures of shitman
Album:  Cereal Killer Soundtrack

Instrument: Guitar
Tuning:     D, A, D, G, B, e
Tabbed By:  Chris Hansson
Email:      [email protected]



intro 
--------------------------------------
--------------------------------------
--------------------------------------
-2-2-4-4-2-5-4-3---2-2-4-4-2-5-4-3----
-2-2-4-4-2-5-4-3---2-2-4-4-2-5-4-3----
-2-2-4-4-2-5-4-3---2-2-4-4-2-5-4-3----
P.M...............   


riff 1
---------------------------------------------
---------------------------------------------
---------------------------------------2---2-
-2-2-4-4-2-5-4-3---2-2-4-4-2-5-4-3---5-2-5-2-
-2-2-4-4-2-5-4-3---2-2-4-4-2-5-4-3---3-0-3-0-
-2-2-4-4-2-5-4-3---2-2-4-4-2-5-4-3-----------
P.M.....................


riff 2 (Bends are one whole step and held)
--12------------11-----------10-------------9------------8-------8------12-11-10-----
-b15-(x4)-------b14-(4x)----b13-(4x)-------b12-(3x)------b11-----b11-------------12~-
-------------------------------------------------------------------------------------
-------------------------------------------------------------------------------------
-------------------------------------------------------------------------------------
-------------------------------------------------------------------------------------


riff 3 (this is background for the solo)
-----------------------------------------------------------------------
-----------------------------------------------------------------------
----------2-2-------------2-2-------------2-2-------------2-2--2--5----
----------2-2-------------2-2-------------2-2-------------2-2--2--5----
----------0-0-------------0-0-------------0-0-------------0-0--0--3----
-0-3-5-------------0-3-5---------0-3-5------------0-3-5----------------
P.M      



outro
---------------------------------------4-8-9~----
--------------------------------4-7--------------
-------------------5-------5---------------------
-------------4-7------7--------------------------
------3-6----------------------------------------
-5-----------------------------------------------


--------------------
--------------------
--------------------
-2-2-4-4-2-5-4-3----
-2-2-4-4-2-5-4-3----
-2-2-4-4-2-5-4-3----


SONG LAYOUT:

intro   - 4x
riff 1  - 5x
(pause) - 14 seconds
riff 2  - 1x
riff 3  - 8x
outro   - 1x


Текст, аккорды и табулатура для песни "The Misadventures Of Shitman", исполняет "Green Jelly".
Используемые в песне аккорды можно найти в разделе Как брать аккорды. Аккорды для шестиструнной гитары. Другие песни можно найти на нашем сайте, воспользовавшись алфавитным указателем вверху страницы.


 
Ошибка в тексте? Выделите ошибку и нажмите Ctrl+Enter