Альбом: Эмигрант
Tabbed by Sergey Popov from Kharkov, Ukraine
e-mail: [email protected]

(Distortion Guitar)

Intro:
           E7*
e--------------------|
B--------------------|
G|----------4--------------------| x2
D|----------6--------------------|
A|-----2-/5-5-----2-/5--5--5-2--|
E|--0----------------------------|
             
         G         B             E   C
e-----------|--------0-------------------|
B|--------3------/---7--|--------0-------------------|
G|--------4------/---8--|--------1-------------------|
D|-----5--5------/---9--|-----2--2------2------------|
A|--------5------/---9--|--------2----3---3-2---0----|
E|--3----------3-/7-----|--0----------------------3--|
                   sl(все баррэ тянуть)

В принципе куплеты и припев играются теми ж риффами, но с вариациями.
Если просто бить по аккордам, ничего путевого не получиться,
В куплете C играется так:

A|--3---2------|
E|----------3--|

Verse1: 
E
Что ты говоришь еле слышно
E
Хочешь понимать, то, что нужно
G                                 B     E
А это невозможно просто потому что поздно
           C
Очень поздно

Говорить то что я вижу как блестят твои глаза
Холодным одиноким светом, вижу как
Дрожит твоя рука, но точно знаю, что пойду
От того что я вижу здесь и тут и та-а-а-ам

Chorus:
G                 B   E           C
Включи погромче свой   distortion я-а-а
G            B                   Е
Я захочу тебя-а-а                ночью
E                     G          B
Только ночью, только ночью-ю-ю-ю
        E    C
Только ночью

Verse2
Этой ночью можешь говорить еле слышно,
Сможешь ли понять, то, что нужно
Или это невозможно просто потому что поздно
Очень позно

Говорить то что я вижу как блестят твои глаза
Голодным одиноким светом, вижу ка-ак
Дрожит твоя рука, но точно знаю, знаю, что пойду
От того что я вижу здесь и тут и та-а-а-ам

Chorus:
Включи погромче сво-о-о-ой дистошн я-а-а
Я захочу тебя-а-а-а-а-А-А-А

Solo:

e--------------------------------
B--------------------------------
G|-----12----14--12--11----9--/11----9-------
D|--9-------------------------------------9--

e|------7-10----7-10-12-14----12-15-17-19----12----
B|----8--------------------------------------------
G|--9----------------------------------------------
D--------------------------------------

    ^     ^     ^     ^     ^
e|----------2-5-3-2---2--------|
B|------3-5---------3---3------| А вот это ОЧЕНЬ быстро
G|--0-4-------------------4-0--| У меня не получается четко
D------------------| сыграть ЭТО на такой скорости :(((


Chorus. + e|--/12--7---0--|

Ending:
Только ночью  e|--15----14-12---10---12-7--|

Только ночью  e|--15----14-12---10---12-7--|

Только ночью
И это не все...

P.S. Не уверен, что на E7* правильно нарисовал табу, но Дизель
точно как-то так (в районе 5 лада) ставит его.

P.P.S. Дизель, бесспорно, классно играет на гитаре!!!


Текст, аккорды и табулатура для песни "Только Ночью", исполняет "Green Grey".
Используемые в песне аккорды можно найти в разделе Как брать аккорды. Аккорды для шестиструнной гитары. Другие песни можно найти на нашем сайте, воспользовавшись алфавитным указателем вверху страницы.


 
Ошибка в тексте? Выделите ошибку и нажмите Ctrl+Enter