-------------------------------------------------------------------------------
			     I Wanna Be Alone - Green Day
-------------------------------------------------------------------------------

P.M. .....  = palm mute
* = harmonics
^() = bend to note in parenthesis
trem  = tremolo picking
~ = hold notes (let ring out)
/ = slide up
 = slide down
h = hammer on
p = pull off

By: Gary Brockway

(repeat parts as needed)

intro/verse:

    p.m.........................
e|---------------------------------------------------------------------------|
B|---------------------------------------------------------------------------|
G|-------------------------------------0~~--0~~--0~~--0~~--------------------|
D|------7-----5-----7-----5-----7----4~~--2~~--4~~--2~~----------------------|
A|--5-5---5-5---5-5---5-5---5-5----5~~--3~~--5~~--3~~------------------------|
E|---------------------------------------------------------------------------|

chorus:

e|---------------------------------------------------------------------------|
B|---------------------------------------------------------------------------|
G|------------------------7--7--7-7--4--4--4-4-------------------------------|
D|--5--5--5-5--7--7--7-7--7--7--7-7--4--4--4-4-------------------------------|
A|--5--5--5-5--7--7--7-7--5--5--5-5--2--2--2-2-------------------------------|
E|--3--3--3-3--5--5--5-5-----------------------------------------------------|

bridge:
    *  *  *  *  *  *  *  *  *  *  *  *   *
e|--7-----5--------------------7--7--7---------------------------------------|
B|-----------7---------------------------7-----------------------------------|
G|-----7--------5-----5-----5-------------------0~~--0~~--0~~--0~~-----------|
D|-----------------5-----5--------------------4~~--2~~--4~~--2~~-------------|
A|------------------------------------------5~~--3~~--5~~--3~~---------------|
E|---------------------------------------------------------------------------|
    *  *  *  *  *  *  *  *  *  *  *  *  *  *  * 
e|--------------5-----7-----------7--7--7--7---------------------------------|
B|--5-----5--------7-----7--------------------7------------------------------|
G|-----7-----7--------------5--5---------------------0~~--0~~--0~~--0~~------|
D|-------------------------------------------------4~~--2~~--4~~--2~~--------|
A|-----------------------------------------------5~~--3~~--5~~--3~~----------|
E|---------------------------------------------------------------------------|

solo:

e|-------------------------------10-10--12^(14)--12^(14)---12---12-10h12p10--|
B|------10-10--13^(15)--13^(15)----------------------------------------------|
G|--/12----------------------------------------------------------------------|
D|---------------------------------------------------------------------------|
A|---------------------------------------------------------------------------|
E|---------------------------------------------------------------------------|

e|-----10--12----12---12-10h12p10----10---17--15--14--12------|
B|--12----------------------------12-----------------------------------------|
G|---------------------------------------------------------------------------|
D|---------------------------------------------------------------------------|
A|---------------------------------------------------------------------------|
E|---------------------------------------------------------------------------|

e|--13-12-10--------------------------------------- 10-10----10-10----10-10--|
B|-----------13-12-10-------------------------------10-10----10-10----10-10--|
G|--------------------13-12-10-10-10-10-10-12-10-12^(14)--12^(14)--12^(14)---|
D|---------------------------------------------------------------------------|
A|---------------------------------------------------------------------------|
E|---------------------------------------------------------------------------|

e|-----10-10-----------------------------------------------------------------|
B|-----10-10-----------------------------------------------------------------|
G|--12^(14)---12^(14)-------------------------------------------------------|
D|---------------------------------------------------------------------------|
A|---------------------------------------------------------------------------|
E|---------------------------------------------------------------------------|

===============================================================================


Текст, аккорды и табулатура для песни "I Wanna Be Alone", исполняет "Green Day".
Используемые в песне аккорды можно найти в разделе Как брать аккорды. Аккорды для шестиструнной гитары. Другие песни можно найти на нашем сайте, воспользовавшись алфавитным указателем вверху страницы.


Слушать онлайн I Want to Be Alone


Green DayI Want to Be Alone на Яндекс.Музыке


 
Ошибка в тексте? Выделите ошибку и нажмите Ctrl+Enter