Intro:
   Fm         C#         Ab         Eb
e|-------------------------------------------|
B|--9---9---x-------------13--13--x----------|
G|--10--10--x--10--10--x--13--13--x--12--12--| > 4X
D|-------------11--11--x-------------13--13--|
A|-------------------------------------------|
E|-------------------------------------------|

F   C#   Ab   Eb    > 2X
Say hey, cha...

F        C#           Ab      Eb
Hear the sound of the falling rain
F        C#         Ab   C     F
Coming down like an Armageddon flame
F        C#           Ab      Eb      C
The shame the ones who died without a name
F        C#           Ab      Eb
Hear the dogs howling out of key
F        C#         Ab   C     F
To a hymn called "Faith and Misery"
F        C#           Ab      Eb      C
I plead, the company that lost the war today

        F(2)       C#               Ab              Eb  
        I beg to dream and differ from the hollow lies
        F(2)       C#               Ab              C
        This is the dawning of the rest of our lives
        On holiday.

Проигрыш = Intro

Hear the drum pounding out of time
Another protester has crossed the line
To find the money's on the other side
Can I get another amen? Amen!
There's a flag wrapped around a score of men
A gag, a plastic bag on a monument

        Припев

Bridge:
F(2) | Ab | C# | Bb | Eb | C    \  2 раза
F(2) | Ab | Eb | C  | F         /

Solo:
E|---------------------------------------------8-----8--|
B|--6--6--6--8/9----------------8--5-----5--6-----6-----|
G|----------------8--6\5--5--5--------5-----------------|
D|------------------------------------------------------|
A|------------------------------------------------------|
E|------------------------------------------------------|

E|---------------------------------8--8--12--12~~--13~~--|
B|--6--6--6--8/9----------------8~-----------------------|
G|----------------8--6\5--5--5---------------------------|
D|-------------------------------------------------------|
A|-------------------------------------------------------|
E|-------------------------------------------------------|


Sieg Heil to the President-Gas-Man
"Bombs away!" is your punishment!
Pulverize the Eiffel Towers 
Who criticize your government
Bang! Bang! goes a broken classic
Kill all the fags that don't agree
Triumph by fire
Setting fires is not a way that's meant for me

Eb | C | Fm

Bridge 2:

Bb (slide up to) C
Just cause

Bb (slide up to) C
Just cause

Because we're on holiday


        Припев   > 2 раза

This is our lives on holiday....

Outro:
F | C# | Ab | Eb  (repeat 3x)
F | C# | Eb | C | Fm
F(2)


Текст, аккорды и табулатура для песни "Holiday", исполняет "Green Day".
Используемые в песне аккорды можно найти в разделе Как брать аккорды. Аккорды для шестиструнной гитары. Другие песни можно найти на нашем сайте, воспользовавшись алфавитным указателем вверху страницы.


Слушать онлайн Holiday


Green DayHoliday на Яндекс.Музыке


 
Ошибка в тексте? Выделите ошибку и нажмите Ctrl+Enter