Haven't Seen You In A Long Time - Great Big Sea
Tabbed By Adam Bishop

D5    - xx023x
Cadd9 - x32033
G     - 320033
D     - xx0232

Intro:
   G                             G/F#                          Em7
E|--------------3-----------------------------3-------------------3----3-
B|-------3--------3-----3--------------3--------3-----------------3----3-
G|---------0--------------0--------------0------------------0-----0----0-
D|----0------0-------0--------------0------0-----------0h2-----2--2----2-
A|-------------------------------------------------0h2---------2---------
E|-3--------------------------3--2-----------------------------0---------

            Cadd9
E|----------3-------------3---
B|----------3-----3---------3-
G|----------0-------0---------
D|-----0h2--2--2-------2------
A|-0h2------3-----------------
E|----------------------------

That tab is definitely not exact but if you just pick in that sort of way, 
it will be alright.  

(With riff)
There's a mark on my back
From my last heart attack
Whiskey mouth 
Bottleneck cardshark

There's a source of course she says
It's whispering late at night
Like air leaks from a tire
The truth outruns your life

         D5                   Cadd9
You jump track, thinking it's over

G         D          Cadd9
Sooner or later it's over your shoulder
G         D          Cadd9
Sooner or later it's over your shoulder
G         D          Cadd9
Sooner or later it's over your shoulder

(Play the chords the riff forms instead of the riff itself)
I got a big mechanic mouth
Resonates with sound
A forked metallic tongue
Green with what it's found

Spin my head around
For a different view
You can't look straight ahead
Just see what's in front of you

You jump track, thinking it's over

Chorus

Solo over verse chords

First verse (bass only)

Second verse

(N.C.)
You jump track, thinking it's over
         D5                   Cadd9
You jump track, thinking it's over
         D5                   Cadd9
You jump track, thinking it's over

Chorus (x2)

Pick G until end (I don't know if it fades out or just stops, the radio cut 
the end off)

http://www.angelfire.com/mi/Grenfell/index.html


Текст, аккорды и табулатура для песни "Havent Seen You In A Long Time", исполняет "Great Big Sea".
Используемые в песне аккорды можно найти в разделе Как брать аккорды. Аккорды для шестиструнной гитары. Другие песни можно найти на нашем сайте, воспользовавшись алфавитным указателем вверху страницы.


 
Ошибка в тексте? Выделите ошибку и нажмите Ctrl+Enter