Song: Taster
Artist: Grandaddy
Album: The Broken Down Comforter Collection


Intro:

E|--------------------------|
B|--------------------------|
G|---------8------------8---|
D|--------------------------| 
A|--------------------------|
E|--1s6-6-------6-6-6-------|

Verse:

E|------------------------------------------------------------------------|
B|------------------------------------------------------------------------|
G|--------8--------8------8----------6--------6------6---------6--------6-|
D|------------------------------------------------------------------------|
A|------------------------------------------------------------------------|
E|--6--6-----6--6------6-------5--5-----5--5------5------0--0-----0--0----|

E|-----------------------0-----0--------------------0----0-----|
B|---------------------0---------0----------------0--------0---|
G|------6------------1-------------1------------1------------1-|
D|-----------------2--------------------------2----------------|
A|---------------2--------------------------2------------------|
E|--0----------0--------------------------0--------------------|

Pre-Chorus:
    
    C#5                     B5                     E
E|----------------------------------------------------------------------|
B|----------------------------------------------------------------------|
G|-------------------------------------------------1--1--1--1--1--1--1--|
D|-------------------------------------------------2--2--2--2--2--2--2--|
A|--11-11-11-11-11-11-11----9--9--9--9--9--9--9----2--2--2--2--2--2--2--|
E|---9--9--9--9--9--9--9----7--7--7--7--7--7--7----0--0--0--0--0--0--0--|

Chorus:

 C#5    B5    A5  F#5   E

 C#5    B5    E
 

A5= E  A  D  G  B  E      F#5= E  A  D  G  B  E
    5  7  x  x  x  x           2  4  x  x  x  x

 The Intro might sound a bit weird but it sounds like that on the cd!!

Bye now


Текст, аккорды и табулатура для песни "Taster", исполняет "Grandaddy".
Используемые в песне аккорды можно найти в разделе Как брать аккорды. Аккорды для шестиструнной гитары. Другие песни можно найти на нашем сайте, воспользовавшись алфавитным указателем вверху страницы.


 
Ошибка в тексте? Выделите ошибку и нажмите Ctrl+Enter