Song:      Miner At The Dial-A-View
Artist:    Grandaddy
Album:     The Sophtware Slump
Tabbed by: Jason Mangan
Date:      4-3-2001

Some notes sound an octave lower; I think the guy plays a 5-string.

Intro:              Verse:
G|----------------| |----------------|----------------|----------------|----------------|
D|----------------| |----------------|----------------|----------------|----------------|
A|3-----3---3-----| |2---------------|4---------------|3---------------|----------5-----|
E|----------------| |----------------|----------------|----------------|----------------|
  1 * 2 * 3 * 4 *    1 * 2 * 3 * 4 *  1 * 2 * 3 * 4 *  1 * 2 * 3 * 4 *  1 * 
2 * 3 * 4 *

Pre-chorus:
|----------------|----------------|----------------|----------------|
|----------------|------------0---|3---------------|------2-----0---|
|2---------------|------4---------|----------------|----------------|
|----------------|----------------|----------------|----------------|
1 * 2 * 3 * 4 *  1 * 2 * 3 * 4 *  1 * 2 * 3 * 4 *  1 * 2 * 3 * 4 *

|----------------|----------------|----------------|----------------|
|2---------------|------4-----5---|----------------|----------------|
|----------------|----------------|3---------------|----------------|
|----------------|----------------|----------------|5---------------|
1 * 2 * 3 * 4 *  1 * 2 * 3 * 4 *  1 * 2 * 3 * 4 *  1 * 2 * 3 * 4 *

Chorus:
(Play 1st & 2nd times only)         (Play 3rd & 4th times only)
|----------------|----------------| |----------------|----------------|
|----------------|----------------| |----------------|----------------|
|----------------|----------------| |7---7---7-7-7-7-|----------------|
|----------------|----------------| |----------------|5---5-5---5-5-5-|
1 * 2 * 3 * 4 *  1 * 2 * 3 * 4 *    1 * 2 * 3 * 4 *  1 * 2 * 3 * 4 *

|----------------|----------------|
|----------------|----------------|
|5---5---5-5---5-|----------------|
|----------------|7---7-7---7-7-7-|
1 * 2 * 3 * 4 *  1 * 2 * 3 * 4 *

|----------------|----------------|----------------|----------------|
|----------------|----------------|----------------|----------------|
|7---7---7-7-7-7-|----------------|5---5---5-5-5-5-|----------------|
|----------------|5---5-5---5-5-5-|----------------|7---7-7---7---7-|
1 * 2 * 3 * 4 *  1 * 2 * 3 * 4 *  1 * 2 * 3 * 4 *  1 * 2 * 3 * 4 *

|----------------|----------------|----------------|----------------|
|----------------|----------------|----------------|----------------|
|7---7---7-7-7-7-|----------------|5---5---5-5---5-|----------------|
|----------------|5---5-5---5-5-5-|----------------|7---7-7---7---7-|
1 * 2 * 3 * 4 *  1 * 2 * 3 * 4 *  1 * 2 * 3 * 4 *  1 * 2 * 3 * 4 *

|----------------|----------------|----------------|----------------|
|----------------|----------------|----------------|----------------|
|7---7---7-7-5---|3---3---3-3-3---|3-----3---3-5/--|----------------|
|----------------|----------------|----------------|3---3---3-3-3-3-|
1 * 2 * 3 * 4 *  1 * 2 * 3 * 4 *  1 * 2 * 3 * 4 *  1 * 2 * 3 * 4 *

                   (1st time only)
|----------------| |----------------|----------------|
|----------------| |----------------|----------------|
|----------------| |----------------|----------------|
|3-----3-3-3---3-| |----------------|----------------|
1 * 2 * 3 * 4 *    1 * 2 * 3 * 4 *  1 * 2 * 3 * 4 *

Verse
Pre-chorus
Chorus

Interlude:
|----------------|----------------|----------------|----------------|
|----------------|----------------|----------------|----------------|
|5---5---5-5-5-5-|5-5-5-5---5---5-|7---7---7-7-7-7-|7-7-7-7---7---7-|
|----------------|----------------|----------------|----------------|
1 * 2 * 3 * 4 *  1 * 2 * 3 * 4 *  1 * 2 * 3 * 4 *  1 * 2 * 3 * 4 *

|----------------|----------------|----------------|----------------|
|----------------|----------------|----------------|----------------|
|2-2-2-2-2-2-2-2-|2-2-2-2---2---2-|3-3-3-3-3-3-3-3-|3-3-3-3---3---3-|
|----------------|----------------|----------------|----------------|
1 * 2 * 3 * 4 *  1 * 2 * 3 * 4 *  1 * 2 * 3 * 4 *  1 * 2 * 3 * 4 *

|----------------|----------------|----------------|----------------|
|----------------|----------------|----------------|----------------|
|4-4-4-4-4-4-4-4-|4-4-4-4---4---4-|3-3-3-3-3-3-3-3-|3-3-3-3---3---3-|
|----------------|----------------|----------------|----------------|
1 * 2 * 3 * 4 *  1 * 2 * 3 * 4 *  1 * 2 * 3 * 4 *  1 * 2 * 3 * 4 *

|----------------|----------------|----------------|----------------|
|----------------|----------------|----------------|----------------|
|4-4-4-4-4-4-4-4-|4-4-4-4---4---4-|5-5-5-5-5-5-5-5-|5-5-5-5---5---5-|
|----------------|----------------|----------------|----------------|
1 * 2 * 3 * 4 *  1 * 2 * 3 * 4 *  1 * 2 * 3 * 4 *  1 * 2 * 3 * 4 *

|----------------|----------------|
|----------------|----------------|
|6-6-6-6-6-6-6-6-|6-6-6-6---6---6-|
|----------------|----------------|
1 * 2 * 3 * 4 *  1 * 2 * 3 * 4 *

Chorus (x2)

Outro:
|----------------|----------------|
|----------------|----------------|
|7---7---7---7--|3---------------|
|----------------|----------------|
1 * 2 * 3 * 4 *  1 * 2 * 3 * 4 *

Meat and potatoes stuff - you'll get the idea anyway!
The End.


Текст, аккорды и табулатура для песни "Miner At The Dial-a-view", исполняет "Grandaddy".
Используемые в песне аккорды можно найти в разделе Как брать аккорды. Аккорды для шестиструнной гитары. Другие песни можно найти на нашем сайте, воспользовавшись алфавитным указателем вверху страницы.


 
Ошибка в тексте? Выделите ошибку и нажмите Ctrl+Enter