-------------------------------------------------------------------------------
	          Everything Beautiful is Far Away - Grandaddy
-------------------------------------------------------------------------------
Tabbed by: James Davidson
Email: [email protected]

Tuning:normal

Don't play the strings that have no frets in use.

e|---------------------------------------------------------------------------|
B|---------------------------------------------------------------------------|
G|-11--11--11--11--11--11--11--11--11--11--11--11--11--11--11--11------------|
D|-11--11--11--11--11--11--11--11--09--09--09--09--09--09--09--09------------|
A|-10--10--10--10--10--10--10--10--10--10--10--10--10--10--10--10------------|
E|---------------------------------------------------------------------------|



e|---------------------------------------------------------------------------|
B|---------------------------------------------------------------------------|
G|-09--09--09--09--09--09--09--09--07--07--07--07--07--07--07--07------------|
D|-07--07--07--07--07--07--07--07--07--07--07--07--07--07--07--07------------|
A|-09--09--09--09--09--09--09--09--09--09--09--09--09--09--07--07------------|
E|---------------------------------------------------------------------------|


And after you've done that 2 times you go:


e|---------------------------------------------------------------------------|
B|---------------------------------------------------------------------------|
G|-11--11--11--11--11--11--11--11--11--11--11--11--11--11--11--11------------|
D|-11--11--11--11--11--11--11--11--09--09--09--09--09--09--09--09------------|
A|-10--10--10--10--10--10--10--10--10--10--10--10--10--10--10--10------------|
E|---------------------------------------------------------------------------|




e|---------------------------------------------------------------------------|
B|---------------------------------------------------------------------------|
G|-09--09--09--09--09--09--09--09--07--07--07--07--07--07--07--07------------|
D|-07--07--07--07--07--07--07--07--06--06--06--06--06--06--06--06------------|
A|-09--09--09--09--09--09--09--09--08--08--08--08--08--08--08--08------------|
E|---------------------------------------------------------------------------|



e|---------------------------------------------------------------------------|
B|---------------------------------------------------------------------------|
G|-07--07--07--07--07--07--07--07--06--06--06--06--06--06--06--06------------|
D|-05--05--05--05--05--05--05--05--05--05--05--05--05--05--05--05------------|
A|-07--07--07--07--07--07--07--07--07--07--07--07--07--07--07--07------------|
E|---------------------------------------------------------------------------|



e|---------------------------------------------------------------------------|
B|-05--05--05--05--05--05--05--05--06--06--06--06--06--06--06--06------------|
G|-04--04--04--04--04--04--04--04--05--05--05--05--05--05--05--05------------|
D|-05--05--05--05--05--05--05--05--07--07--07--07--07--07--07--07------------|
A|---------------------------------------------------------------------------|
E|---------------------------------------------------------------------------|



e|---------------------------------------------------------------------------|
B|---------------------------------------------------------------------------|
G|-07--07--07--07--07--07--07--07--07--07--07--07--07--07--07--07------------|
D|-07--07--07--07--07--07--07--07--07--07--07--07--07--07--07--07------------|
A|-09--09--09--09--09--09--09--09--09--09--09--09--09--09--09--09------------|
E|---------------------------------------------------------------------------|



The chorusy bit goes: G D G D
                      G E G D


Please email if you have any comments or corrections.



| /  slide up
|   slide down
| h  hammer-on
| p  pull-off
| ~  vibrato
| +  harmonic
| x  Mute note
===============================================================================


Текст, аккорды и табулатура для песни "Everything Beautiful Is Far Away", исполняет "Grandaddy".
Используемые в песне аккорды можно найти в разделе Как брать аккорды. Аккорды для шестиструнной гитары. Другие песни можно найти на нашем сайте, воспользовавшись алфавитным указателем вверху страницы.


 
Ошибка в тексте? Выделите ошибку и нажмите Ctrl+Enter